PrimaNota.ru - самый крупный в мире бесплатный архив песенных текстов, аккордов, табулатур и нот


Buckcherry - Talk To Me - таба, видео

Регистрация Запомнить меня
Войти через:  Facebook Google Twitter Vk Yandex Mail.ru

Buckcherry - Talk To Me - таба, видео

Печатать
Просмотров: 121
Авторы: Keith Nelson, Marti Frederiksen, Josh Todd

-------------------------------------------------------------------------------
                             TALK TO ME - Buckcherry
-------------------------------------------------------------------------------
Tabbed by: AlexJohnston
Email: 3200030@live.aucb.ac.uk
 
Tuning: EADGBe


Suprised this hasn't been tabbed already to be honest! 'Talk to Me' from Buckcherry's
2008 Black Butterfly record.
Some timings/patterns won't be 100% correct so refer to the track itself and I'm sure you'll
be able to figure them out. There's also some parts e.g. solo which I havn't been able
to tab so if anybody else could contribute that'd be great- just email me! 
Hope this is useful!


Intro:

  (NOTE: muting done with index finger on 5th fret as appose to palm mute)    (times approx)

e|---------------------------------------------------------------------------| Gtr. I
B|---------------------------------------------------------------------------|
G|---------------------------------------------------------------------------|
D|---5-555555--5-555555--5-555555--5-555555----------------------------------|
A|---5-555555--5-555555--5-555555--5-555555----------------------------------|
E|---5-555555--5-555555--5-555555--5-555555----------------------------------| 
     x xxxxxx  x xxxxxx  x xxxxxx  x xxxxxx 

e|---------------------------------------------------------------------------| Gtr. I
B|---------------------------------------------------------------------------|
G|---------------------------------------------------------------------------|
D|---5-555555--5-555555--5-555555--5-555555--5-555555------------------------|
A|---5-555555--5-555555--5-555555--5-555555--5-555555------------------------|
E|---5-555555--5-555555--5-555555--5-555555--5-555555------------------------|  (0.16)
     x xxxxxx  x xxxxxx  x xxxxxx  x xxxxxx  x xxxxxx


  (Gtr. II part can be played by Gtr. I; it should be simple enough to figure
   where the power chords fit between the muted 5th fret notes)

e|---------------------------------------------------------------------------| Gtr. II
B|---------------------------------------------------------------------------|
G|---------------------------------------------------------------------------|
D|---------------------------------------7\99--------------------------------|
A|---------------------------------------7\99--------------------------------|
E|---------------------------------------5\77--------------------------------| 

e|---------------------------------------------------------------------------| Gtr. II
B|---------------------------------------------------------------------------|
G|---------------------------------------------------------------------------|
D|------------------7\99-----------------7\99--------------------------------|
A|------------------7\99-----------------7\99--------------------------------|
E|------------------5\77-----------------5\77---------3b---------------------|  (0.16) 




Verse:


e|---------------------------------------------------------------------------|
B|---------------------------------------------------------------------------|
G|---------------------------------------------------------------------------|
D|---77-777-777-777-1010-5-5-7-7---------------------------------------------|
A|---77-777-777-777-1010-5-5-7-7----------3----------------------------------|
E|---55-555-555-555-8-8--3-3-5-5-3p0-0-h3------------------------------------|

e|---------------------------------------------------------------------------|
B|---------------------------------------------------------------------------|
G|---------------------------------------------------------------------------|
D|---77-777-777-777-1010-5-5-7-7-------------1010-5-5------------------------|
A|---77-777-777-777-1010-5-5-7-7----------3--1010-5-5------------------------|
E|---55-555-555-555-8-8--3-3-5-5-3p0-0-h3----8-8--3-3------------------------|  (0.17-0.29)




Chrous:


e|---------------------------------------------------------------------------|
B|---------------------------------------------------------------------------|
G|---------------------------------------------------------------------------|
D|--------5-------------------------5-------------------------5--------------|
A|---5-7----7--5-7--4-5--------5-7----7--5-7--4-5--------5-7----7--5-7-------|
E|-----------------------3b-0----------------------3b-0----------------------|  (0.30-0.37)

e|---------------------------------------------------------------------------|
B|---------------------------------------------------------------------------|
G|---------------------------------------------------------------------------|
D|---9-999999999999999--7-777777777777777--12-121212121212--7-777777--9------|
A|---9-999999999999999--7-777777777777777--12-121212121212--7-777777--9------|
E|---7-777777777777777--5-555555555555555--10-101010101010--5-555555--7------|  (0.38-0.50)

e|---------------------------------------------------------------------------|
B|---------------------------------------------------------------------------|
G|---------------------------------------------------------------------------|
D|---------------------------------------------------------------------------|
A|--------5---------5-7------------------------------------------------------|
E|---5-7----7--5-7-------5b-7------------------------------------------------|  0.52

e|---------------------------------------------------------------------------|
B|---------------------------------------------------------------------------|
G|---------------------------------------------------------------------------|
D|---9-999999999999999--7-777777777777777--12-121212121212--7-777777--9------|
A|---9-999999999999999--7-777777777777777--12-121212121212--7-777777--9------|
E|---7-777777777777777--5-555555555555555--10-101010101010--5-555555--7------|  (0.00-1.02)

e|---------------------------------------------------------------------------|
B|---------------------------------------------------------------------------|
G|---------------------------------------------------------------------------|
D|---------------------------------------------------------------------------|
A|--------5---------5-7-------------5----------------------------------------|
E|---5-7----7--5-7-------5b-7--5-7----7--5-7---------------------------------|   1.07


   (Verse)


e|---------------------------------------------------------------------------|
B|---------------------------------------------------------------------------|
G|---------------------------------------------------------------------------|
D|--------5-------------------------5-------------------------5--------------|
A|---5-7----7--5-7--4-5--------5-7----7--5-7--4-5--------5-7----7--5-7-------|
E|-----------------------3b-0----------------------3b-0----------------------|

e|---------------------------------------------------------------------------|
B|---------------------------------------------------------------------------|
G|---------------------------------------------------------------------------|
D|---9-999999999999999--7-777777777777777--12-121212121212--7-777777--9------|
A|---9-999999999999999--7-777777777777777--12-121212121212--7-777777--9------|
E|---7-777777777777777--5-555555555555555--10-101010101010--5-555555--7------|  

e|---------------------------------------------------------------------------|
B|---------------------------------------------------------------------------|
G|---------------------------------------------------------------------------|
D|---------------------------------------------------------------------------|
A|--------5---------5-7------------------------------------------------------|
E|---5-7----7--5-7-------5b-7------------------------------------------------|  

e|---------------------------------------------------------------------------|
B|---------------------------------------------------------------------------|
G|---------------------------------------------------------------------------|
D|---9-999999999999999--7-777777777777777--12-121212121212--7-777777--9------|
A|---9-999999999999999--7-777777777777777--12-121212121212--7-777777--9------|
E|---7-777777777777777--5-555555555555555--10-101010101010--5-555555--7------|  

e|---------------------------------------------------------------------------|
B|---------------------------------------------------------------------------|
G|---------------------------------------------------------------------------|
D|---------------------------------------------------------------------------|
A|--------5---------5---------------5----------------------------------------|
E|---5-7----7--5-7----7--5b-7--5-7----7--5-7---------------------------------|




Pre-solo:


e|---------------------------------------------------------------------------|
B|---------------------------------------------------------------------------|
G|---------------------------------------------------------------------------|
D|---9--------9--------7--------7--------9-------9-------99999999999999------|
A|---9--9-99--9--9-99--7--7-77--7--7-77--9-9-99--9-9-99--99999999999999------|
E|---7--9-99--7--9-99--5--7-77--5--7-77--7-9-99--7-9-99--77777777777777------|




Solo (rythym):

(quieter than lead)

e|---------------------------------------------------------------------------|  Gtr. I
B|---------------------------------------------------------------------------|
G|---------------------------------------------------------------------------|
D|--------5-------------------------5-------------------------5--------------|
A|---5-7----7--5-7--4-5--------5-7----7--5-7--4-5--------5-7----7--5-7-------|
E|-----------------------3b-0----------------------3b-0----------------------|  (x4)

(played on 4th/last bar of Gtr. I above)
e|---------------------------------------------------------------------------|  Gtr. 2
B|---------------------------------------------------------------------------|
G|---------------------------------------------------------------------------|
D|----------------------------------------------------------------7\99-------|
A|----------------------------------------------------------------7\99-------|
E|----------------------------------------------------------------5\77-------|  



Post Solo:



e|---------------------------------------------------------------------------| Gtr. I
B|---------------------------------------------------------------------------|
G|---------------------------------------------------------------------------|
D|---5-555555--5-555555--5-555555--5-555555--5-555555--5-555555--------------|
A|---5-555555--5-555555--5-555555--5-555555--5-555555--5-555555--------------|
E|---5-555555--5-555555--5-555555--5-555555--5-555555--5-555555--------------| 
     x xxxxxx  x xxxxxx  x xxxxxx  x xxxxxx  x xxxxxx  x xxxxxx


e|---------------------------------------------------------------------------| Gtr. II
B|---------------------------------------------------------------------------|
G|---------------------------------------------------------------------------|
D|------------------7\99-----------------7\99---------------7\99-------------|
A|------------------7\99-----------------7\99---------------7\99-------------|
E|------------------5\77-----------------5\77---------------5\77-------------|   


e|---------------------------------------------------------------------------| Gtr. I
B|---------------------------------------------------------------------------|
G|---------------------------------------------------------------------------|
D|---5-555555--5-555555------------------------------------------------------|
A|---5-555555--5-555555------------------------------------------------------|
E|---5-555555--5-555555------------------------------------------------------|
     x xxxxxx  x xxxxxx

e|---------------------------------------------------------------------------| Gtr. I
B|---------------------------------------------------------------------------|
G|---------------------------------------------------------------------------|
D|---9-999999999999999--7-777777777777777--12-121212121212--7-777777--9------|
A|---9-999999999999999--7-777777777777777--12-121212121212--7-777777--9------|
E|---7-777777777777777--5-555555555555555--10-101010101010--5-555555--7------|  

e|---------------------------------------------------------------------------|
B|---------------------------------------------------------------------------|
G|---------------------------------------------------------------------------|
D|---------------------------------------------------------------------------|
A|--------5---------5--------------------------------------------------------|
E|---5-7----7--5-7----7--5b-7------------------------------------------------|  

e|---------------------------------------------------------------------------|
B|---------------------------------------------------------------------------|
G|---------------------------------------------------------------------------|
D|---9-999999999999999--7-777777777777777--12-121212121212--7-777777---------|
A|---9-999999999999999--7-777777777777777--12-121212121212--7-777777---------|
E|---7-777777777777777--5-555555555555555--10-101010101010--5-555555--7b-----| 

e|---------------------------------------------------------------------------|
B|---------------------------------------------------------------------------|
G|---------------------------------------------------------------------------|
D|---------------------------------------------------------------------------|
A|--------5---------5--------------------------------------------------------|
E|---5-7----7--5-7----7--5b-7------------------------------------------------| 

e|---------------------------------------------------------------------------|
B|---------------------------------------------------------------------------|
G|---------------------------------------------------------------------------|
D|---12-121212121212--7-777777-----------------------------------------------|
A|---12-121212121212--7-777777-----------5---------5-------------------------|
E|---10-101010101010--5-555555--7b--5-7----7--5-7----7--5b-7-----------------|


e|---------------------------------------------------------------------------|
B|---------------------------------------------------------------------------|
G|---------------------------------------------------------------------------|
D|---12-121212121212--7-777777-----------------------------------------------|
A|---12-121212121212--7-777777-----------5---------5-------------------------|
E|---10-101010101010--5-555555--7b--5-7----7--5-7----7--5b-7-----------------|








************************************

| /   slide up
| \   slide down
| h   hammer-on
| p   pull-off
| ~   vibrato
| +   harmonic
| x   Mute note
| b   Bend
| pb  Pre-bend
| br  Bend release
| pbr Pre-bend release
| brb Bend release bend

************************************
Добавлено: 27.02.2012
Другие материалы по этой песне:
  • Аккорды и текст

Страница создана 27.02.2012
http://primanota.ru/buckcherry/talk-to-me-chords.htm
Привет, Гость.
Предлагаем пройти революционный курс по гитаре.
Подарок от PrimaNota.Ru, забирай!