PrimaNota.ru - самый крупный в мире бесплатный архив песенных текстов, аккордов, табулатур и нот


Buckcherry - Slammin - текст песни, таба, видео

Регистрация Запомнить меня
Войти через:  Facebook Google Twitter Vk Yandex Mail.ru

Buckcherry - Slammin - текст песни, таба, видео

Печатать
Просмотров: 184
Song: Slammin'
Band: Buckcherry
Tuning: Open G [d g d g b e]

r= Let Ring
h= hammer on
p= pull off
~= bend


-This is one of buckCherry's Slickest Songs. Some fun Hard Rock!


(Intro.)
--------------------------------------------|
--------------------------------------------|
--------------------------------------------|
--0-3-5r------------------------------------|
--------------------------------------------|
--------------------------------------------|


--------------------------------------------|
--------------------------------------------|
--------------------------------------------|
--h5--0-3-0-2-------------------------------|
--------------3-0---------------------------|
--------------------------------------------| x4

(Main Riff)
--------------------------------------------|
--------------------------------------------|
--------------------------------------------|
--h5--0-3-0-2-------------------------------|
---0----------3p0r--------------------------|
--------------------------------------------| x3


--------------------------------------------|
--------------------------------------------|
--3-h5-5-5-3--------------------------------|
--3-h5-5-5-3--------------------------------|
--3-h5-5-5-3--------------------------------|
--------------------------------------------|

(Verse)
--------------------------------------------|
--------------------------------------------|
----0-0--3-0-0----0-0--3-h5-5-5-3-----------|
----0-0--3-0-0----0-0--3-h5-5-5-3-----------|
--5-0-0--3-0-0--5-0-0--3-h5-5-5-3-----------|
--3-------------3---------------------------| x2

(Chorus)
---------------------------------------------------------|
---------------------------------------------------------|
---------------------------------------------------------|
--h5--0-3-0-2--------5--0-3-0-2--------5--0-3-0-2--------|
---0----------3p0r-------------3p0r--------------3p0r----|
---------------------------------------------------------|

-------------------------------------------|
-------------------------------------------|
-------------------------------------------|
-------------------------------------------|
--5-0-3-0-2~-0-----------------------------|
-------------------------------------------|

---------------------------------------------------------|
---------------------------------------------------------|
---------------------------------------------------------|
--h5--0-3-0-2--------5--0-3-0-2--------5--0-3-0-2--------|
---0----------3p0r-------------3p0r--------------3p0r----|
---------------------------------------------------------|

--------------------------------------------|
--------------------------------------------|
--3-h5-5-5-3--------------------------------|
--3-h5-5-5-3--------------------------------|
--3-h5-5-5-3--------------------------------|
--------------------------------------------|

Enjoy!
Добавлено: 16.06.2012
Другие материалы по этой песне:
  • Аккорды и текст

Страница создана 03.06.2012
http://primanota.ru/buckcherry/slammin-chords.htm
Привет, Гость.
Предлагаем пройти революционный курс по гитаре.
Подарок от PrimaNota.Ru, забирай!