PrimaNota.ru - самый крупный в мире бесплатный архив песенных текстов, аккордов, табулатур и нот


Buckcherry - Ridin - текст песни, таба, видео

Регистрация Запомнить меня
Войти через:  Facebook Google Twitter Vk Yandex Mail.ru

Buckcherry - Ridin - текст песни, таба, видео

Печатать
Просмотров: 149
---------------------------------------------------------------------
                             Ridin' - Buckcherry
---------------------------------------------------------------------
Note: Great Buckcherry song from the album Timebomb. Listen to record to get the timing down. 

Email:jerrocha2001@yahoo.com

Tuning: Open G Tuning

Intro:

{------------Play 3 Times---------}
d|----------------------------------|-----------------------------------|
B|----------------------------------|--------------------5^h-5--3-------|
G|----------------------------------|-----------------0-----------3-2-0-|
D|-5-3-5-3---3-3-2--2-2-3--0-----0--|--5-3-5-3---3-3--------------------|
G|-0-0-0-0---0-0-0--0-0-0--0-3^q-0--|--0-0-0-0---0-0--------------------|
D|----------------------------------|-----------------------------------|


1.Everyone Take your Places,  We're fuckin' it up goin' Crazy
  Another down , which way to roll and you know were takin' it  Come on!

3.Phat like a friend on a payday, The crazy days have taken their toll
  And if you think the roads a bore, well you know your fakin' it Come on! 

Play this for Verses 1 and 3 (shown above)
 {---------Play 3 times-----------}
d|---------------------------------|---------------------------------|
B|---------------------------------|-------------------6--5--7\3--3--|
G|------------x-x-x----------------|-------------x-x---5--5--7\3--3--|
D|-3-5-5-5-5--x-x-x--2-3-2-3-2-----|--3-5-5-5-5--x-x---7--5--7\3--3--|
G|-0-0-0-0-0---------0-0-0-0-0-3^q-|--0-0-0-0-0--------5--5--7\3--3--|
D|---------------------------------|---------------------------------|

2.Stoned baby loves to go ridin' She loves it casue shes sick in the head
  Lights down music loud and you know we're makin it, oh Yeah, we're going

4.You're so upset but complacent, I know a place that you ought to go
  Calvins in the back,your face in my lap, & lets roll, oh yeah,were going

Play this for Verses 2 and 4 (shown above)
 {---------Play 2 times-----------}
d|-----------------------------------|-----------------------------------|
B|-----------------------------------|-----------------------------------|
G|------------x-x-x------------------|--5-----5-----5-----5-----5--------|
D|-3-5-5-5-5--x-x-x--2-3-2-3-2-------|--5--0--5-----5--0--5-----5--0--0--|
G|-0-0-0-0-0---------0-0-0-0-0-3^q-0-|--5-----4--0--5-----4--0--5--------|
D|-----------------------------------|-----------------------------------|


Chorus:

Ridin'!!  We're gonna find a way.  We're goin' Ridin!
And when the fear has left, child, put one down and go on.. Yeah

d|--------------------------------------|
B|--------------------------------------|
G|-3--0--0--0--3--0--3--5------5--0-----|
D|-3--0--0--0--3--0--3--5------5--0-----|
G|-3--0--0--0--3--0--3--5------5--0-----|
D|--------------------------------------|


Guitar Solo Rythm
d|---------------------------------------------|
B|--------------------------------------6---5--|
G|-2--2--4--2--4--2--4--2--2--2--4--2---5---5--|
D|-0--0--0--0--0--0--0--0--0--0--0--0---7---5--|
G|--------------------------------------5---5--|
D|---------------------------------------------|

This part of the song is played with pick and fingers, listen to the
song and you'll know what part I'm talking about.

All the way from the west side of town..
d|-5--5--5--5--5--5--5--3--3--3--3--3--3--3--3--3-|
B|-3--3--3--3--3--3--3--3--3--3--3--3--3--3--3--3-|
G|-0--0--0--0--0--0--0--0--0--0--0--0--0--0--0--0-|
D|------------------------------------------------|
G|------------------------------------------------|
D|------------------------------------------------|

We get up and we never come down......
d|-2--2--2--2--2--2--2--3--3--3--3--3--3--3-|
B|-3--3--3--3--3--3--3--3--3--3--3--3--3--3-|
G|-0--0--0--0--0--0--0--0--0--0--0--0--0--0-|
D|------------------------------------------|
G|------------------------------------------|
D|------------------------------------------|

That's it.  Hope you all enjoy this tab!!  Thanks for looking.


Key:
^q - Bend quarter Tone
^h - Bend Half Tone
\ = slide down

=======================================================================
Добавлено: 23.03.2012
Другие материалы по этой песне:
  • Аккорды и текст

Страница создана 23.03.2012
http://primanota.ru/buckcherry/ridin-chords.htm
Привет, Гость.
Предлагаем пройти революционный курс по гитаре.
Подарок от PrimaNota.Ru, забирай!