PrimaNota.ru - самый крупный в мире бесплатный архив песенных текстов, аккордов, табулатур и нот


Buckcherry - Pump It Up - таба, видео

Регистрация Запомнить меня
Войти через:  Facebook Google Twitter Vk Yandex Mail.ru

Buckcherry - Pump It Up - таба, видео

Печатать
Просмотров: 164
Only the first few bits that I have ear transcribed...
Any corrections or additional tabbing would be appreciated.

Standard EADGBe Tuning:


-------------------------0---------------------------------|
---------------------------0-------------------------------|
-----------------------------3----------4brbrbrbr----------|
----4------------------------------------------------------|   
----4------------------------------------------------------|         
----2------------------------------------------------------|         
    (let ring)

-------------------------0---------------------------------|
---------------------------0-------------------------------|
--------------4b-------------3-----------------------------|
-44-4---------4b------------------------4-4-6-6-7-7-8-8----|   
-44-4-----------------------------------4-4-6-6-7-7-8-8----|         
-22-2------------------------------15/2-2-2-4-4-5-5-6-6----|         
 xx (let ring)

------------------------------------------------------------------------|
------------------------------------------------------------------------|
------------------------------------------------------------------------|
----9---9---9-8-7----9----9--9-8-7----9---9---9-8-7----9----9--9-8-7----|
----9---9---9-8-7----9----9--9-8-7----9---9---9-8-7----9----9--9-8-7----|    
----7---7---7-6-5----7----7--7-6-5----7---7---7-6-5----7----7--7-6-5----|


------------------------------------------------------------------------|
------------------------------------------------------------------------|
------------------------------------------------------------------------|
----9-9-------------------------------9-9-------------------------------|
----9-9-------------------------------9-9-------------------------------|
----7-7-------------------------------7-7-------------------------------|

------------------------------------------------------------------------|
------------------------------------------------------------------------|
------------------------------------------------------------------------|
----9-9------------99-7-9-------------9-9--------------99-7-9-----------|
----9-9------------99-7-9-------------9-9--------------99-7-9-----------|
----7-7------------77-5-7-------------7-7--------------77-5-7-----------| 



------------------------------------------------------------------------|
------------------------------------------------------------------------|
------------------------------------------------------------------------|
----2-2-2-2-2-2-2-2-2-2-2-2-2-2-2-2-2-2-2-2-2-2-2-2-2-2-2-2-2-2-2-2-----|
----2-2-2-2-2-2-2-2-2-2-2-2-2-2-2-2-2-2-2-2-2-2-2-2-2-2-2-2-2-2-2-2-----|
----0-0-0-0-0-0-0-0-0-0-0-0-0-0-0-0-0-0-0-0-0-0-0-0-0-0-0-0-0-0-0-0-----|
(Gtr.2 plays licks not tabbed)


------------------------------------------------------------------------|
------------------------------------------------------------------------|
------------------------------------------------------------------------|
----9---9---9-8-7----9----9--9-8-7----9---9---9-8-7----9----9--9-8-7----|
----9---9---9-8-7----9----9--9-8-7----9---9---9-8-7----9----9--9-8-7----|    
----7---7---7-6-5----7----7--7-6-5----7---7---7-6-5----7----7--7-6-5----|

------------------------------------------------------------------------|
------------------------------------------------------------------------|
------------------------------------------------------------------------|
----9-9-------------------------------9-9-------------------------------|
----9-9-------------------------------9-9-------------------------------|
----7-7-------------------------------7-7-------------------------------|

------------------------------------------------------------------------|
------------------------------------------------------------------------|
------------------------------------------------------------------------|
----9-9------------99-7-9-----------------------------------------------|
----9-9------------99-7-9-----------------------------------------------|
----7-7------------77-5-7-----------------------------------------------|



------------------------------------------------------------------------|
------------------------------------------------------------------------|
------------------------------------------------------------------------|
----2-2-2-2-2-2-2-2-2-2-2-2-2-2-2-2-2-2-2-2-2-2-2-2-2-2-2-2-2-2-2-2-----|
----2-2-2-2-2-2-2-2-2-2-2-2-2-2-2-2-2-2-2-2-2-2-2-2-2-2-2-2-2-2-2-2-----|
----0-0-0-0-0-0-0-0-0-0-0-0-0-0-0-0-0-0-0-0-0-0-0-0-0-0-0-0-0-0-0-0-----|
(Gtr.2 plays licks not tabbed)


------------------------------------------------------------------------|(x2)
------------------------------------------------------------------------|
------------------------------------------------------------------------|
----9---9---9-8-7----9----9--9-8-7----9---9---9-8-7----9----9--9-8-7----|
----9---9---9-8-7----9----9--9-8-7----9---9---9-8-7----9----9--9-8-7----|    
----7---7---7-6-5----7----7--7-6-5----7---7---7-6-5----7----7--7-6-5----|

------------------------------------------------------------------------|
------------------------------------------------------------------------|
-----------------------------------12--9-------99-----------------------|
----2------------------------------------10\12-----(first part of lick--|   
----2-----------------5h7(trill*)-------------------can't tab rest)-----|    
----0-------------------------------------------------------------------| 
(*length of trilling easy to figure out by listening)



| /   slide up
| \   slide down
| h   hammer-on
| p   pull-off
| ~   vibrato
| +   harmonic
| x   Mute note
| b   Bend
| pb  Pre-bend
| br  Bend release
| pbr Pre-bend release
| brb Bend release bend
Добавлено: 20.06.2012
Другие материалы по этой песне:
  • Аккорды и текст

Страница создана 20.06.2012
http://primanota.ru/buckcherry/pump-it-up-chords.htm
Привет, Гость.
Предлагаем пройти революционный курс по гитаре.
Подарок от PrimaNota.Ru, забирай!