PrimaNota.ru - самый крупный в мире бесплатный архив песенных текстов, аккордов, табулатур и нот


Buckcherry - Open My Eyes - текст песни, таба, видео

Регистрация Запомнить меня
Войти через:  Facebook Google Twitter Vk Yandex Mail.ru

Buckcherry - Open My Eyes - текст песни, таба, видео

Печатать
Просмотров: 169
-------------------------------------------------------------------------------
                       Open My Eyes - BUCKCHERRY
-------------------------------------------------------------------------------

Notes:  Great song.  Josh Todd is an underrated songwriter, and this proves it.  Song's
are able to be found on the internet, but they are way off.  Like, drunk off. Lol. It's
easy as long as you can fingerpick a little.  Play the notes in parenthesis in the intro 
make the piano-to-guitar transition roll a little more.  I like it better that way
 Up to you.  I'm not 100% on the chord in between the key-shift
between the bridge and the last chorus.  Throw me an email or leave a comment if youhave
better!  E-mail: kjlee2112@gmail.com Thanks!

Intro:

e|--0---------------0-------------------------------|
B|----3-1-------3-----3-1-------3---1~-1~---1~-1~---|
G|--0-----0~--0-----------0~--0---0-2~-2~---2~-2~---|
D|---------(2)------2------(2)------3~-3~-3-3~-3~---|
A|--3-----------------------------------------------|
E|------------------0---------------1~--------------|

                                            Let ring
e|--0---------------0-------------------------8~---|
B|----3-1-------3-----3-1-------3---1~-1~----8-----|
G|--0-----0~--0-----------0~--0---0-2~-2~--10------|
D|------------------2---------------3~-3~----------|
A|--3----------------------------------------------|
E|------------------0---------------1~-------------|

        C
Are you strong enough
        C/E
Do you feel my touch
            Fmaj7/C
You are the comfort in my eyes
        C
Moving through the lust
        C/E
Feeling dangerous
        Fmaj7/C                F
I wanna open the door to your life

(Chorus—after 2nd time go to bridge)
 E->F                    G               Am - Asus2 - Am
The steps we take on the way to free our minds
    F                         G               Am - Asus2 - Am
And lives have changed by the way we free our minds
    F                      G
And being with you was the moment
  G         C
I opened my eyes

(Play 2nd half of Intro here)

         C
When you sleep at night
         C/E
Are your dreams delight
           Fmaj7/C                 F
Do all your fantasies fill your head
          C
I want to dance with you
         C/E
With the midnight moon
   Fmaj7/C                F
Want emotion and do it again

(to Chorus--^)

(Bridge)
e|--0---------------0--------------------------------------|
B|----3-1-------3-----3-1-------3---1~-1~--1~--1~----1--1--|
G|--0-----0~--0---0-------0~--0---0-2~-2~--2~--2~----2--2—-|
D|---------(2)------2------(2)------3~-3~--3~--3~----3--3--|
A|--3------------------------------------------------------|
E|------------------0---------------1~----1--1------1--1---|

G             Am                  F
Breathing in, breathing out your love
G             Am                F
Breathing in, breathing out my love
G             Am                 Dsus2 - A
Breathing in, breathing out your love

        D
Come in closer now
        D/F#
To this love we found
        D/G                 G
Are you able to take this flight
          D
It's come down to this
          D/F#
The first time we kissed
         D/G                    G
Like the ocean we sway you and I

(Chorus)

F#->G                   A              Bm - Bsus2 - Bm
The steps we take on the way to free our minds
    G                   A                    Bm - Bsus2 - Bm
And lives have changed by the way we free our minds
    G                      A
And being with you was the moment
           D
I opened my eyes

(the piano at the end is the same progression as the intro, just moved up to D, D/F#, G
C)

End on D.

Let me know if you need anything specified or cleared up thanks!
Добавлено: 27.03.2012
Другие материалы по этой песне:
  • Аккорды и текст

Страница создана 27.03.2012
http://primanota.ru/buckcherry/open-my-eyes-chords.htm
Привет, Гость.
Предлагаем пройти революционный курс по гитаре.
Подарок от PrimaNota.Ru, забирай!