PrimaNota.ru - самый крупный в мире бесплатный архив песенных текстов, аккордов, табулатур и нот


Buckcherry - Liberty - текст песни, таба, видео

Регистрация Запомнить меня
Войти через:  Facebook Google Twitter Vk Yandex Mail.ru

Buckcherry - Liberty - текст песни, таба, видео

Печатать
Просмотров: 135
An attempt to roughly tab the record 'Liberty' from Buckcherry's new All Night
Long album. Can't tab any of the special effects of licks/solos so just the main powercords/riff.

(Standard Tuning EADGBe)

Also listen to track for timings/rythym etc as I don't know how to tab these properly!)


---------------------------------------------------------------|
---------------------------------------------------------------|
----------------5-------------9--9-9--5--5-5--7--7-7-----------|
----------------5-------------9--9-9--5--5-5--7--7-7--4-5-3----|
----------------3-------------7--7-7--3--3-3--5--5-5--4-5-3----|
----3--3-3-6-5--3-------------7--7-7--3--3-3--5--5-5--2-3-1----|   (X2)
                                   x       x       x      ^
                                                      (bend up)


------------------------------------------------------| (1)
------------------------------------------------------|
------------------------------------------------------|
----5--5-5-8-7--5-5-5-5-5-5-5-5-8-7--5----------------|
----5--5-5-8-7--5-5-5-5-5-5-5-5-8-7--5----------------|
----3--3-3-6-5--3-3-3-3-3-3-3-3-6-5--3----       -----|
                    x   x   x x                      -
         (mute strings with fretboard fingers)        --    Alternate (X5)
                                                     -   (i.e. 1/2,/1/2,/1/2,
------------------------------------------ (2) -|             1/2,1/2)
------------------------------------------------|
-------------------------------------5----------|
----5--5-5-8-7--5-5-5-5-5-5-5-5-8-7--5----------|
----5--5-5-8-7--5-5-5-5-5-5-5-5-8-7--3----------|
----3--3-3-6-5--3-3-3-3-3-3-3-3-6-5-------------|      Verse starts on 3rd loop
                    x   x   x x

----------------------------------------------------|
----------------------------------------------------|
----------------------------------------------------|
----5--5-5-8-7--5-5-5-5-5-5-5-5-8-7--5--5--8--10----|
----5--5-5-8-7--5-5-5-5-5-5-5-5-8-7--5--5--8--10----|
----3--3-3-6-5--3-3-3-3-3-3-3-3-6-5--3--3--6--8-----|
                    x   x   x x


---------------------------------------------------------------|
---------------------------------------------------------------|
----------------5-------------9--9-9--5--5-5--7--7-7--4-5-3----|
----5--5-5-8-7--5-------------9--9-9--5--5-5--7--7-7--4-5-3----|
----5--5-5-8-7--3-------------7--7-7--3--3-3--5--5-5--4-5-3----|
----3--3-3-6-5--3-------------7--7-7--3--3-3--5--5-5--2-3-1----|   (X4)
                                   x       x       x      ^
                                                      (bend up)


------------------------------------------------------| (1)
------------------------------------------------------|
------------------------------------------------------|
----5--5-5-8-7--5-5-5-5-5-5-5-5-8-7--5----------------|
----5--5-5-8-7--5-5-5-5-5-5-5-5-8-7--5----------------|
----3--3-3-6-5--3-3-3-3-3-3-3-3-6-5--3----       -----|
                    x   x   x x                      -
         (mute strings with fretboard fingers)        --    Alternate (X5)
                                                     -   (i.e. 1/2,/1/2,/1/2,
------------------------------------------ (2) -|             1/2,1/2)
------------------------------------------------|
-------------------------------------5----------|
----5--5-5-8-7--5-5-5-5-5-5-5-5-8-7--5----------|
----5--5-5-8-7--5-5-5-5-5-5-5-5-8-7--3----------|
----3--3-3-6-5--3-3-3-3-3-3-3-3-6-5-------------|      Verse starts on 3rd loop
                    x   x   x x

----------------------------------------------------|
----------------------------------------------------|
----------------------------------------------------|
----5--5-5-8-7--5-5-5-5-5-5-5-5-8-7--5--5--8--10----|
----5--5-5-8-7--5-5-5-5-5-5-5-5-8-7--5--5--8--10----|
----3--3-3-6-5--3-3-3-3-3-3-3-3-6-5--3--3--6--8-----|
                    x   x   x x

Then solo comes etc, can maybe figure out the other parts and sound effects etc.
Hope this was useful!
Добавлено: 24.07.2012
Другие материалы по этой песне:
  • Аккорды и текст

Страница создана 24.07.2012
http://primanota.ru/buckcherry/liberty-chords.htm
Привет, Гость.
Предлагаем пройти революционный курс по гитаре.
Подарок от PrimaNota.Ru, забирай!