PrimaNota.ru - самый крупный в мире бесплатный архив песенных текстов, аккордов, табулатур и нот


Buckcherry - Get Back - текст песни, таба, видео

Регистрация Запомнить меня
Войти через:  Facebook Google Twitter Vk Yandex Mail.ru

Buckcherry - Get Back - текст песни, таба, видео

Печатать
Просмотров: 160
----------------------------------------------------------------------------
                           GET BACK--BUCKCHERRY
----------------------------------------------------------------------------

GET BACK by BUCKCHERRY(ALBUM-BUCKCHERRY)

I really like this song but i couldn't find anyone who had tabbed it so I decided to
it a try.  This is my 1st tab.  I believe what I've tabbed is right but I don't know the
parts. I'd really appreciate it if someone finished this tab.  It is a very fun song.  
easy to play.

Email: kbiriwn@cinci.rr.com -let me know if you know the rest of the song or any parts i
up.

Tuning: standard tuning


(INTRO/SOLO BACKGROUNDS)
e|--------------------------------------------------|
B|--------------------------------------------------|
G|--------------------------------------------------|
D|--2-2---6-6---7-7---9-------2-2---6-6---7-7--4----|x2
A|--2-2---6-6---7-7---9-------2-2---6-6---7-7--4----|
E|--0-0---4-4---5-5---7-------0-0---4-4---5-5--2----|

(VERSES)
e|-------------------------------------------------------------------|
B|-------------------------------------------------------------------|
G|-------x-x-x-x--x-x-x-x--x-x-x-x--------x-x-x-x--x-x-x-x--x-x-x-x--|
D|--2-2--6-6-6-6--7-7-7-7--9-9-9-9---2-2--6-6-6-6--7-7-7-7--4-4-4-4--|
A|--2-2--6-6-6-6--7-7-7-7--9-9-9-9---2-2--6-6-6-6--7-7-7-7--4-4-4-4--|
E|--0-0--4-4-4-4--5-5-5-5--7-7-7-7---0-0--4-4-4-4--5-5-5-5--2-2-2-2--|

e|----------------------------------------------------------|
B|----------------------------------------------------------|
G|-------x-x-x-x--x-x-x-x--x-x-x-x--------------------------|
D|--2-2--6-6-6-6--7-7-7-7--9-9-9-9----2-2---6-6---7-7---4---|x2
A|--2-2--6-6-6-6--7-7-7-7--9-9-9-9----2-2---6-6---7-7---4---|
E|--0-0--4-4-4-4--5-5-5-5--7-7-7-7----0-0---4-4---5-5---2---|

(CHORUS)
e|---------------------------------------------------|
B|---------------------------------------------------|
G|------6------------------------6-------------------|
D|--2---6---9-9---6---7------2---6---9-9---11--9-----|
A|--2---4---9-9---6---7------2---4---9-9---11--9-----|
E|--0-------7-7---4---5------0-------7-7---9---7-----|

e|--------------------------------------------------|
B|--------------------------------------------------|
G|------6---------------------------------4444444---|
D|--2---6---9-9---6---7----2--2--2--2--2--4444444---|
A|--2---4---9-9---6---7----2--2--2--2--2--2222222---|
E|--0-------7-7---4---5----0--0--0--0--0------------|
GO BACK TO INTRO

This is the majority of the song.  You should be able to play it easy after listening to
on the album a few times. I recommend the CD.


| /  slide up
| \  slide down
| h  hammer-on
| p  pull-off
| ~  vibrato
| +  harmonic
| x  Mute note

============================================================================
Добавлено: 29.05.2012
Другие материалы по этой песне:
  • Аккорды и текст

Страница создана 08.04.2012
http://primanota.ru/buckcherry/get-back-chords.htm
Привет, Гость.
Предлагаем пройти революционный курс по гитаре.
Подарок от PrimaNota.Ru, забирай!