PrimaNota.ru - самый крупный в мире бесплатный архив песенных текстов, аккордов, табулатур и нот


Buckcherry - Fallout - таба, видео

Регистрация Запомнить меня
Войти через:  Facebook Google Twitter Vk Yandex Mail.ru

Buckcherry - Fallout - таба, видео

Печатать
Просмотров: 132
Again, another ear transcribed tab... I'm suprised at the amount of Buckcherry
songs that aren't tabbed yet!

It's only random parts of the song but I guess it's better than having no tab at
all for it; if you have any additional tabbing/corrections for this song let me know please!

-----------------|
-----------------|          (4th bar is different but can't tab;
-----------------|           it may be 2nd guitar over top...)
----9-9---9-9----|
----9-9---9-9----|
----7-7---7-7----|  (x4)

(x= mute/dampen strings with chord/fret/fingering hand)

                          --- MAIN RIFF ---

-------------------------------------|
-------------------------------------|
-------------------------------------|
--------9-----9---------9-----9-7----|
--------9-----9---------9-----9-7----|
----7-7-7-7-7-7-7-7-7-7-7-7-7-7-5----|     then....
    x x   x x   x x x x   x x

---------------------------------------|
---------------------------------------|
--------------------9-9-----7----------|
--------9-----9-----9-9-6-6-7-7-7-8----|
--------9-----9-----7-7-6-6-5-7-7-8----|
----7-7-7-7-7-7-7-7-----4-4---5-5-6----|  back to previous bar...
    x x   x x   x x

(these two bars repeat in succession at numerous points throughout song)

 ----------------------------------------------------------------------


---------------------------------------------|
---------------------------------------------|
---------------------------------------------|
----12-12-12-11-11-11-9-9-9-7-7-7-6-6-4-4----|
----12-12-12-11-11-11-9-9-9-7-7-7-6-6-4-4----|
----10-10-10-9--9--9--7-7-7-5-5-5-4-4-2-2----|

                     "I can't stop a deadlock..."    then...

-------------------------------------|
-------------------------------------|
----9-9-9-8-8-8-6-6-6-4-4-4-----4----|
----9-9-9-8-8-8-6-6-6-4-4-4-7-7-4----|
----7-7-7-6-6-6-4-4-4-2-2-2-7-7-2----|
----------------------------5-5------|  back to previous (only repeat once)


--------------|
--------------|
--------------|
----5----7----|
----5----7----|
----3----5----|  (slide pick up strings; listen for detail etc)

--------------|
--------------|
---------9----|
----9----9----|
----9----7----|
----7---------| (x3)

-------------------------------------|
-------------------------------------|
-------------------------------------|
----7-7-7-6-6-6-7-7-7-6-6-6-7-7-8----|
----7-7-7-6-6-6-7-7-7-6-6-6-7-7-8----|
----5-5-5-4-4-4-5-5-5-4-4-4-5-5-6----|  (then goes to a lick on lead guitar)


Back to MAIN RIFF and follow back to to this point again; which then goes into solo...
Добавлено: 02.04.2012
Другие материалы по этой песне:
  • Аккорды и текст

Страница создана 02.04.2012
http://primanota.ru/buckcherry/fallout-chords.htm
Привет, Гость.
Предлагаем пройти революционный курс по гитаре.
Подарок от PrimaNota.Ru, забирай!