PrimaNota.ru - самый крупный в мире бесплатный архив песенных текстов, аккордов, табулатур и нот


Buckcherry - Fall - текст песни, таба, бас-таба, видео

Регистрация Запомнить меня
Войти через:  Facebook Google Twitter Vk Yandex Mail.ru

Buckcherry - Fall - текст песни, таба, бас-таба, видео

Печатать
Просмотров: 186
----------------------------------------------------------------------------
                             Fall - Buckcherry
----------------------------------------------------------------------------

Tabbed by:Jordan
Email:Jordangrainger@hotmail.co.uk

Tuning:standard

intro:

e|-------------------------------------|
B|-------------------------------------|
G|--------------------------------7/9--|  x2
D|--------------------------------7/9--|
A|--------------------------------5/7--|
E|-3p000-000-5p3p00-000-7p5p00-000-----|

verse:

e|--------------------------------|
B|--------------------------------|
G|----------------------------7/9-|    random use of 2 on d string
D|-----(2)------(2)-----------7/9-| X3 
A|----------------------------5/7-|
E|-0000-000-0000-000-0000-000-----|
PM .... ... .... ... .... ...

pre-chorus:

e|--------------------------------|
B|--------------------------------|
G|-------------------3-4-5-6-7-8--|
D|-------------------3-4-5-6-7-8--|
A|-------------------1-2-3-4-5-6--|
E|-0000-000-0000-000--------------|
PM .... ... .... ...

Chorus 1:

guitar 1:
                          1st time only
e|-----------------------|-----------|
B|-----------------------|-----------|
G|-9-----------7---------|-----------|
D|-9-x6-7-9----7-x8--7---|--7-6-5----|
A|-7----7-9x8--5-----7-x5|--7-6-5----|    x2
E|------5-7----------5---|--5-4-3----|


guitar 2:
                                                   1st time only
e|------------------------------------------------|--------------|
B|------------------------------------------------|--------------|
G|------------------------------------------------|--------------|
D|-99-11-912-11-9------------------77-9-711-9-7---|--------------|
A|------------------99-11-912-11-9----------------|-77-9-711-9-7-|
E|------------------------------------------------|--------------|

chorus 2 is the same as chorus one but parts in |------| are played both times

solo 1:

e|-------------------------------------------------|
B|-------------------------------------------------|
G|-----------------555-555------7-------7-9b(11)7--|
D|-555-555-555-555----7---7~-7-9-979-7-9---------9-|
A|----7---7---7---7--------------------------------|
E|-------------------------------------------------|

e|--------------------------------------------------------------------|
B|-12b(14)12-10-9-10-9-7~---------------------------------------------|
G|------------------------16b(18)u14------------16b(18)u14------------|
D|-----------------------------------16b(18)u14------------16b(18)u14-|
A|--------------------------------------------------------------------|
E|--------------------------------------------------------------------|

e|---------------------------------------14-------14-------1414--|
B|--------------------------------17b(19)--17b(19)--17b(19)------|
G|-19b(21)u17------------17b(19)~--------------------------------|
D|------------19b(21)u17-----------------------------------------|
A|---------------------------------------------------------------|
E|---------------------------------------------------------------|

e|-17b(19)-14---------17b(19)-17b(19)-17b(19)-17b(19)-17b(19)-14-17b(19)-|
B|------------17(19)-----------------------------------------------------|
G|-----------------------------------------------------------------------|
D|-----------------------------------------------------------------------|
A|-----------------------------------------------------------------------|
E|-----------------------------------------------------------------------|

solo 2:

e|----------------------------------------|
B|-121212--1212121212---121212--121212----|
G|-121212--1212121212---121212--121212----|
D|-------14----------14-------14------14~-|
A|----------------------------------------|
E|----------------------------------------|

e|----------------------------------------------|
B|-----------------------------------------12~--|
G|--14b12141214~-14b1214----14b121412--1412-----|
D|----------------------14~----------14---------|
A|----------------------------------------------|
E|----------------------------------------------|

e|-12--12--12--15--12--12--15--12--12--15--|
B|-15b-15b-15b-18b-15b-15b-18b-15b-15b-18b-|
G|-----------------------------------------|
D|-----------------------------------------|
A|-----------------------------------------|
E|-----------------------------------------|

song structure:

intro
verse
pre chorus
chorus 1
intro
verse
pre chorus
chorus 2
solo
chorus 2
chorus 1
solo 2
pre chorus end on E

Добавлено: 09.04.2012
Другие материалы по этой песне:

Страница создана 31.03.2012
http://primanota.ru/buckcherry/fall-chords.htm
Привет, Гость.
Предлагаем пройти революционный курс по гитаре.
Подарок от PrimaNota.Ru, забирай!