PrimaNota.ru - самый крупный в мире бесплатный архив песенных текстов, аккордов, табулатур и нот


Buckcherry - Dead Again - текст песни, таба, видео

Регистрация Запомнить меня
Войти через:  Facebook Google Twitter Vk Yandex Mail.ru

Buckcherry - Dead Again - текст песни, таба, видео

Печатать
Просмотров: 116
Авторы: Keith Nelson, Devon Glenn, Jonathan Brightman, Josh Todd

Dead Again 

Intro- Guitar 1 
e|------------------------------------------| 
B|------------------------------------------| 
G|------------------------------------------| 
D|-55555555-3-3-3\55555555-3-3-3------------| 
A|-55555555-3-3-3\55555555-3-3-3------------| 
E|-33333333-1-1-1\33333333-1-1-1------------| 

Intro- Guitar 2 
(plays in the background) 
e|------------------------------------------| 
B|12p11----12p11---12p11---13b--------------| 
G|-----h12------h12-----h12-----------------| 
D|------------------------------------------| 
A|------------------------------------------| 
E|------------------------------------------| 

Verses- Part 1 
e|------------------------------------------| 
B|------------------------------------------| 
G|------------------------------------------| 
D|--55555555555555--------------------------| 
A|--55555555555555-etc.---------------------| 
E|--33333333333333--------------------------| 
********* 
(pull off palm mute slowly) 

Verse- Part 2 
e|------------------------------------------| 
B|------------------------------------------| 
G|---------------5b-------------------------| 
D|-555-5--5-5-5--5b-bend-the-whole-chord----| 
A|-555-5--5-5-5--3b-------------------------| 
E|-333-3--3-3-3-----------------------------| 

e|------------------------------------------| 
B|------------------------------------------| 
G|-10-10-10-10-10-10-10-10------------------| 
D|-10-10-10-10-10-10-10-10-10-10-10-10-10-10|
A|-8--8--8--8---8--8-8--8--10-10-10-10-10-10|
E|-------------------------8--8--8--8--8--8-| 

e|------------------------------------------| 
B|------------------------------------------| 
G|-888888--888-888--------------------------| 
D|-888888--888 888--888-888888--------------| 
A|-666666--666-666--888 888888--------------| 
E|----------------- 666-666666--------------| 

Bridge- played before and in the background 
of the solo. 
e|------------------------------------------| 
B|------------------------------------------| 
G|-/44x-x4x-x44-4h5p4---77x-x7x-x77-7h8p7---| 
D|-/55x-x5x-x55------h5-88x-x8x-x88------h8-| 
A|-/55x-x5x-x55---------88x-x8x-x88---------| 
E|-/33x-x3x-x33---------66x-x6x-x66---------| 

e|------------------------------------------| 
B|------------------------------------------| 
G|-9-9-x-x9-x-x-9-9-9h10p9----44x-x4x-x4444-| 
D|-1010x-x10x-x1010-------h10-55x-x5x-x5555-| 
A|-1010x-x10x-x1010-----------55x-x5x-x5555-| 
E|-8-8-x-x8-x-x8-8------------33x-x3x-x3333-| 
Добавлено: 25.08.2013
Другие материалы по этой песне:
  • Аккорды и текст

Страница создана 23.05.2012
http://primanota.ru/buckcherry/dead-again-chords.htm
Привет, Гость.
Предлагаем пройти революционный курс по гитаре.
Подарок от PrimaNota.Ru, забирай!