PrimaNota.ru - самый крупный в мире бесплатный архив песенных текстов, аккордов, табулатур и нот


Buckcherry - Crazy Bitch - текст песни, таба, бас-таба, видео

Регистрация Запомнить меня
Войти через:  Facebook Google Twitter Vk Yandex Mail.ru

Buckcherry - Crazy Bitch - текст песни, таба, бас-таба, видео

Печатать
Просмотров: 1131
Авторы: Josh Todd, Keith Nelson

This is Buckcherry's new single, called Crazy Bitch
This may not be 100% correct, but i'm only 15 and this is what i figured out. I didnt
tab the solo, but it's not hard to figure out or even improvise. there are a lot of
quieter guitar fills put into the verses, and those are the same as the other guitar
parts, with a few extra notes thrown in, those i improvise as well. I know that their
signature is a drop "A" tuning, and that would just make everything on the "A" string
2 frets higher (2 in standard = 4 in drop "A")
                         Crazy Bitch - Buckcherry
Intro
E---------|
B---------|
G-44---44-|
D-44---44-|
A-22---22-|
E---------|

Pre-verse
E------------------------------------|
B----------7^7-5-7-5-------------4-2-|
G-4-444444-7^7-5-7-5-4-444444----4-2-|
D-4-444444-----------4-444444--------|
A-2-222222-----------2-222222-0-0----|
E------------------------------------|

Bridge 1
E--------------------|
B--------------------|
G--------------------|
D--------------------|
A-2----2---2---5p2~~-|
E--4-4--5-5-6-6------|

Verse 2x
(with wah)
E-------------------------------------|
B-------------------------------------|
G---------------------------------2~~-|
D---------------------------------2~~-|
A-0h2-22-5p2-2-2~~xx0h2-2-2-5p2-2-----|
E-------------------------------------|

E----------------|-----------------|
B----------------|-----------------|
G----------------|-----------------|
D----------------|-----------------|
A-0h2-2-2-5p2-22~|-2---2---5p2-----|
E----------------|--4-4-5-5---5-7~-|
	         ^louder 2nd time^
Chorus 2x
E-----------------------|
B--------------7^7-7-5--|
G-44---44---44-7^7-7-5~-|
D-44---44---44----------|
A-22---22---22----------|
E-----------------------|

E-----------------|
B-----------------|
G-----------------|
D-----------------|
A-2---2---5p2-----|
E--4-4-5-5---5-7~-|

Bridge to verse
E--------------------------------------------|
B--------------------------------------------|
G-4444----444-4444----444--------------------|
D-4444----444-4444----444--------------------|
A-2222-5p2222-2222-5p2222-2----2---2---5p2~~-|
E--------------------------4-4--5-5-6-6------|

Verse 2x
(with wah)
E-------------------------------------|
B-------------------------------------|
G---------------------------------2~~-|
D---------------------------------2~~-|
A-0h2-22-5p2-2-2~~--0h2-2-2-5p2-2-----|
E-------------------------------------|

E----------------|-----------------|
B----------------|-----------------|
G----------------|-----------------|
D----------------|-----------------|
A-0h2-2-2-5p2-22~|-2---2---5p2-----|
E----------------|--4-4-5-5---5-7~-|
	         ^louder 2nd time^

Chorus 2x
E-----------------------|
B--------------7^7-7-5~-|
G-44---44---44-7^7-7-5~-|
D-44---44---44----------|
A-22---22---22----------|
E-----------------------|

E-----------------|
B-----------------|
G-----------------|
D-----------------|
A-2---2---5p2-----|
E--4-4-5-5---5-7~-|

Rhythm guitar in solo
E-------------------------------||
B-------------------------------||
G-------------------------------||
D-------------------------------||
A-------------------------------||
E-0-1-2-0-1-2-0-1-2-0-1-2-0-1-2-||

E-------------------------------|
B-------------------------------|
G-------------------------------|
D-------------------------------|
A-0-1-2-0-1-2-0-1-2-0-1-2-0-1-2-|
E-------------------------------|

E-----------------------------------|
B-----------------------------------|
G-----------------------------------|
D-------------------------------5-9-|
A-------------------------------5-9-|
E-0-1-2-0-1-2-0-1-2-0-1-2-0-1-2-5-7-|

Pre-chorus 1 (quiet, Wah)
Just drums and voice, then
E-----------------|
B-----------------|
G-----------------|
D-----------------|
A-2---2---5p2-----|
E--4-4-5-5---5-7~-|
Pre-chorus 2
E------------------------------------------|----------------|
B------------------------------------------|----------------|
G-----------2^2~---------------------------|----------------|
D-----------2^2~---------2-2-0-------------|----------------|
A0h2-xx-0h2----0h2-xx-0h2-----2~-0h2-xx-0h2|2---2---5p2-----|
E------------------------------------------|-4-4-5-5---5-7~-|
                                           ^louder 2nd time^
Before last chorus 4x
E--------------------------|
B--------------------------|
G-7-7-9-9------------------|
D-7-7-9-9------------------|
A-5-5-7-7-2---2---5p2------|
E-----------4-4-5-5---5-7~-|

Last chorus  2x
E-----------------------|
B--------------7^7-7-5~-|
G-444444444444-7^7-7-5~-|
D-444444444444----------|
A-222222222222----------|
E-----------------------|

E-------------------------------|
B-------------~-----------------|
G-444444444444------------------|
D-444444444444------------------|
A-222222222222--2---2---5p2-----|
E----------------4-4-5-5---5-7~-|

E---------------------------------|------------------|
B---------------------------------|------------------|
G---------------------------------|------------------|
D---------------------------------|--------------9~~-|
A-2---2---5p2-----2---2---2---2---|-2---2---5p2--9~~-|
E--4-4-5-5---5-7~--4-4-5-5-4-4-5-5|--4-4-5-5---5-7~~-|

Or you can end it with:
E---
B---
G-4-
D-4-
A-2-
E---

^ = bend
P = pull off
Добавлено: 05.03.2012
Другие материалы по этой песне:

Страница создана 05.03.2012
http://primanota.ru/buckcherry/crazy-bitch-chords.htm
Привет, Гость.
Предлагаем пройти революционный курс по гитаре.
Подарок от PrimaNota.Ru, забирай!