PrimaNota.ru - самый крупный в мире бесплатный архив песенных текстов, аккордов, табулатур и нот


Buckcherry - Back In The Day - таба, видео

Регистрация Запомнить меня
Войти через:  Facebook Google Twitter Vk Yandex Mail.ru

Buckcherry - Back In The Day - таба, видео

Печатать
Просмотров: 149
----------------------------------------------------------------------------
                             Back in the Day - Buckcherry
----------------------------------------------------------------------------

Tabbed by: Rodrigomierh

Email: rodrigomierh@hotmail.com


Tuning: Standard

 Intro                                         
|----------------------------------------|
|----------------------------------------|
|-----9-9-8-7--7-7-----------------------|  X4
|-----9-9-8-7--7-7-x-x---9-9-8-7--x-5-x--|
|-----7-7-6-5--5-5-x-x---9-9-8-7--x-5-x--|
|------------------x-x---7-7-6-5--0-3-0--|

Verses
|------------------------------------------------------------------------|
|------------------------------------------------------------------------|
|-------------------------7----------------------------------------------|
|-7-----------------------7---7--7-------------5-7-----------\\--PICK----|
|-7-x-x-x-x-x-x-x-x-x-x-x-5-7-5--7-x-x-x-x-x-x-5-7-x-x-x-x-x--\\-SCRATCH-|
|-5-x-x-x-x-x-x-x-x-x-x-x---5----5-x-x-x-x-x-x-3-5-x-x-x-x-x---\\--------|

|---------------------------------------|
|---------------------------------------|
|-9-9-8-7--7-7--------------------------|
|-9-9-8-7--7-7----x-x---7-7-8-9---x-5-x-|
|-7-7-6-5--5-5----x-x---7-7-8-9---x-5-x-|
|-----------------x-x---5-5-6-7---0-3-0-|

|------------------------------------------------------------------------|
|------------------------------------------------------------------------|
|-------------------------7----------------------------------------------|
|-7-----------------------7---7--7-------------5-7-----------\\--PICK----|
|-7-x-x-x-x-x-x-x-x-x-x-x-5-7-5--7-x-x-x-x-x-x-5-7-x-x-x-x-x--\\-SCRATCH-|
|-5-x-x-x-x-x-x-x-x-x-x-x---5----5-x-x-x-x-x-x-3-5-x-x-x-x-x---\\--------|

|------------------------------------------------------------------------|
|------------------------------------------------------------------------|
|-9-9-8-7--7-7-----------------------------------------------------------|
|-9-9-8-7--7-7---x-x---7-7-8-9--9-9-9---5--7-7-7-7-7-7-7--\\---PICK------|
|-7-7-6-5--5-5---x-x---7-7-8-9--9-9-9---5--7-7-7-7-7-7-7---\\--SCRATCH---|
|----------------x-x---5-5-6-7--7-7-7---3--5-5-5-5-5-5-5----\\-----------|


 Chorus
|-----------------------------------------------------------------|
|-----------------------------------------------------------------|
|-9-9-8-7--7-7-------------------------------------5--5-6-7-------|
|-9-9-8-7--7-7--x-x---9-9-8-7---x-5-x---5-x-5-7----5--5-6-7-------|
|-7-7-6-5--5-5--x-x---9-9-8-7---x-5-x---5-x-5-7----3--3-4-5-------|
|---------------x-x---7-7-6-5---0-3-0---3-0-3-5-------------------|


|-----------------------------------------------------------------|
|-----------------------------------------------------------------|
|-9-9-8-7--7-7----------------------------------------------------|
|-9-9-8-7--7-7--x-x---9-9-8-7---7-7-7---5-5-9-x--7-7-7-7-7-x-5-x--|
|-7-7-6-5--5-5--x-x---9-9-8-7---7-7-7---5-5-9-x--7-7-7-7-7-x-5-x--|
|---------------x-x---7-7-6-5---5-5-5---3-3-7-x--5-5-5-5-5-0-3-0--|

 play Verses Again


 Play Chorus Again


 Pre-solo

|Guitar 1
|------------------------------------------------------------------------|
|------------------------------------------------------------------------|
|--------------------------x---------------------------------------------|
|--------------------------x---x-x--------------x-x-7-7-7-7--7--7--7--7--|
|---------x-x-x-x--x-x-x-x-5-x-5-x--x-x-x-x-x-x-x-x-7-7-7-7--7--7--7--7--|
|-5-x-x-x-x-x-x-x--x-x-x-x---5---5--x-x-x-x-x-x-3-5-5-5-5-5--5--5--5--5--|
|
|Guitar 2         
|------------------------------------------------------------------------|
|------------------------------------------------------------------------|
|------------------------------------------------------------------------|
|-2-2-2-2-4-4-4-4--5-5-5-5-7-7-7-7--5-5-5-5-7-7-7-7-9-9-9-9-11-11-11-11--|
|------------------------------------------------------------------------|
|------------------------------------------------------------------------|
  ____        _       
 / ___|  ___ | | ___  
 \___ \ / _ \| |/ _ \ 
  ___) | (_) | | (_) |
 |____/ \___/|_|\___/ 

  Solo (Rhythm)

|--------------------------------------------------------------------------|
|--------------------------------------------------------------------------|
|-5-5-3-5--5-5-x-x--5-5-3-5--5-5-x-x--7-7-5-7--7-7-x-x--7-7--5-7--/12-12-12|
|-5-5-3-5--5-5-x-x--5-5-3-5--5-5-x-x--7-7-5-7--7-7-x-x--7-7--5-7--/12-12-12|
|-3-3-1-3--3-3-x-x--3-3-1-3--3-3-x-x--5-5-3-5--5-5-x-x--5-5--3-5--/10-10-10|
|--------------------------------------------------------------------------|

 Solo (Lead)

|--------------------------------------------------------------------------|
|--------------------------------------------------------------------------|
|-/9-9-9-10-9------/9--9-9-10-9------/11--11-11-12-11------/11--11-11-12-11|
|--------------10----------------10--------------------12------------------|
|--------------------------------------------------------------------------|
|--------------------------------------------------------------------------|

|--------------------------------------------------------------------------|
|--------------------------------------------------------------------------|
|---/12--12-12-14-12----/12--12-12-14-12---/14--14-14-16-14-----14h16-16b19|
|12------------------14-----------------14-----------------16-16-----------|
|--------------------------------------------------------------------------|
|--------------------------------------------------------------------------|


|--------------------------------------------------------------------|
|---18b20---18p17h18p17--17s15h17p15--15s13h15p13--13s11h13p11-------|
|--------------------------------------------------------------14----|
|--------------------------------------------------------------------|
|--------------------------------------------------------------------|
|--------------------------------------------------------------------|

|-----------15---16---17------------------19b20r18---17---16---15~~~-|
|---15S19-----------------19---15------------------------------------|
|--------------------------------------------------------------------|
|--------------------------------------------------------------------|
|--------------------------------------------------------------------|
|--------------------------------------------------------------------|


 Play Chorus

|-----------------------|
|--------15b17r16r15~~--|
|-----------------------| Play this at the Beginning 
|-----------------------|  
|-----------------------|    of chorus to end the solo
|-----------------------|

Play pre-solo as Outro


END...


Tablature Legend
----------------
| /  slide up
| \  slide down
| h  hammer-on
| p  pull-off
| ~  vibrato
| +  harmonic
| x  Mute note
============================================================================
Добавлено: 19.03.2012
Другие материалы по этой песне:

Страница создана 12.03.2012
http://primanota.ru/buckcherry/back-in-the-day-chords.htm
Привет, Гость.
Предлагаем пройти революционный курс по гитаре.
Подарок от PrimaNota.Ru, забирай!