PrimaNota.ru - самый крупный в мире бесплатный архив песенных текстов, аккордов, табулатур и нот


Buckcherry - All Night Long - текст песни, таба, бас-таба, видео

Регистрация Запомнить меня
Войти через:  Facebook Google Twitter Vk Yandex Mail.ru

Buckcherry - All Night Long - текст песни, таба, бас-таба, видео

Печатать
Просмотров: 266
Авторы музыки: Buckcherry
Авторы текста: Josh Todd, Keith Nelson
Buckcherry-All Night Long
All Night Long (2010)
STANDARD Tuning
(E, A, D, G, B, E)
Tabbed by Ryan Ryngaert
ORIGINALLY SUBMITTED ON MXTABS.NET

Intro
E-------------------------2-2--3-2-|
B-------------------------3-3--3-3-|
G-----DRUM-------------2--2-2--0-2-|
D----INTRO------2-2--2-2-------0---|
A---------------2-2--2-0-------2---|
E---------------0-0--0---------3---|

E-----------2-2-2-2-2-2-2-2-2-2-2-2-2-2-2-2-|
B-----------3-3-3-3-3-3-3-3-3-3-3-3-3-3-3-3-|
G--------2--2-2-2-2-2-2-2-2-2-2-2-2-2-2-2-2-|
D-2-2--2-2----------------------------------|
A-2-2--2-0----------------------------------|
E-0-0--0------------------------------------|

E------3-3--2-2--3-2------3-3--2-2-------------|
B------3-3--3-3--3-3------2-2--3-3-------------|
G------0-0--2-2--0-2------0-0--2-2--5----------|
D-2-2--0-0-------0---2-2--0-0-------5--2---2-2-|
A-2-2--2-2-------2---2-2--3-3-------3--2---2-2-|
E-0-0--3-3-------3---0-0--3-3----------0---0-0-|

Verse                                   
E-----------3--3-3--3-2--2-2--2--------|
B-----------2--2-2--2-3--3-3--3--------|
G-----------0--0-0--0-2--2-2--2--------|
D-2--2-2--2-0--0-0--0-----------2--2-2-|
A-2--2-2--2-2--2-2--2-----------2--2-2-|
E-0--0-0--0-3--3-3--3-----------0--0-0-|

E---------------------------------3-3-3-3-3-3-3-3-3-3-3-3-3-3-3-3-|
B---------------------------------2-2-2-2-2-2-2-2-2-2-2-2-2-2-2-2-|
G---------------------------------0-0-0-0-0-0-0-0-0-0-0-0-0-0-0-0-|
D-2-2-2-2-2-2-2-2-2-2-2-2-2-2-2-2-0-0-0-0-0-0-0-0-0-0-0-0-0-0-0-0-|
A-2-2-2-2-2-2-2-2-2-2-2-2-2-2-2-2-2-2-2-2-2-2-2-2-2-2-2-2-2-2-2-2-|
E-0-0-0-0-0-0-0-0-0-0-0-0-0-0-0-0-3-3-3-3-3-3-3-3-3-3-3-3-3-3-3-3-|

E-2-2-2-2-2-2-2-2-2-2-2-2-2-2-2-2---------------------------------|
B-3-3-3-3-3-3-3-3-3-3-3-3-3-3-3-3---------------------------------|
G-2-2-2-2-2-2-2-2-2-2-2-2-2-2-2-2---------------------------------|
D---------------------------------2-2-2-2-2-2-2-2-2-2-2-2-2-2-2-2-|
A---------------------------------2-2-2-2-2-2-2-2-2-2-2-2-2-2-2-2-|
E---------------------------------0-0-0-0-0-0-0-0-0-0-0-0-0-0-0-0-|

Chorus
E------3-3--2-2--3-2------3-3--2-2-------------|
B------3-3--3-3--3-3------2-2--3-3-------------|
G------0-0--2-2--0-2------0-0--2-2--5----------|
D-2-2--0-0-------0---2-2--0-0-------5--2---2-2-|
A-2-2--2-2-------2---2-2--3-3-------3--2---2-2-|
E-0-0--3-3-------3---0-0--3-3----------0---0-0-|


Verse                                   
E-----------3--3-3--3-2--2-2--2--------|
B-----------2--2-2--2-3--3-3--3--------|
G-----------0--0-0--0-2--2-2--2--------|
D-2--2-2--2-0--0-0--0-----------2--2-2-|
A-2--2-2--2-2--2-2--2-----------2--2-2-|
E-0--0-0--0-3--3-3--3-----------0--0-0-|

E---------------------------------3-3-3-3-3-3-3-3-3-3-3-3-3-3-3-3-|
B---------------------------------2-2-2-2-2-2-2-2-2-2-2-2-2-2-2-2-|
G---------------------------------0-0-0-0-0-0-0-0-0-0-0-0-0-0-0-0-|
D-2-2-2-2-2-2-2-2-2-2-2-2-2-2-2-2-0-0-0-0-0-0-0-0-0-0-0-0-0-0-0-0-|
A-2-2-2-2-2-2-2-2-2-2-2-2-2-2-2-2-2-2-2-2-2-2-2-2-2-2-2-2-2-2-2-2-|
E-0-0-0-0-0-0-0-0-0-0-0-0-0-0-0-0-3-3-3-3-3-3-3-3-3-3-3-3-3-3-3-3-|

E-2-2-2-2-2-2-2-2-2-2-2-2-2-2-2-2---------------------------------|
B-3-3-3-3-3-3-3-3-3-3-3-3-3-3-3-3---------------------------------|
G-2-2-2-2-2-2-2-2-2-2-2-2-2-2-2-2---------------------------------|
D---------------------------------2-2-2-2-2-2-2-2-2-2-2-2-2-2-2-2-|
A---------------------------------2-2-2-2-2-2-2-2-2-2-2-2-2-2-2-2-|
E---------------------------------0-0-0-0-0-0-0-0-0-0-0-0-0-0-0-0-|

Chorus
E------3-3--2-2--3-2------3-3--2-2-------------|
B------3-3--3-3--3-3------2-2--3-3-------------|
G------0-0--2-2--0-2------0-0--2-2--5----------|
D-2-2--0-0-------0---2-2--0-0-------5--2---2-2-|
A-2-2--2-2-------2---2-2--3-3-------3--2---2-2-|
E-0-0--3-3-------3---0-0--3-3----------0---0-0-|

Bridge
E---------------------2-2-----------|
B---------------------3-3-----------|
G-4-4--2----4-4--2----2-2--5----2-2-|
D-4-4--2-2--4-4--2-2-------5-5--2-2-|
A-2-2--0-2--2-2--0-2-------3-5--0-0-|
E--------0---------0---------3------|

Solo (RHYTHM)
E------3-3--2-2--3-2------3-3--2-2-------------|
B------3-3--3-3--3-3------2-2--3-3-------------|
G------0-0--2-2--0-2------0-0--2-2--5----------|
D-2-2--0-0-------0---2-2--0-0-------5--2---2-2-|
A-2-2--2-2-------2---2-2--3-3-------3--2---2-2-|
E-0-0--3-3-------3---0-0--3-3----------0---0-0-|

Verse                                   
E---------3--3-3--3-2--2-2--2--------|
B---------2--2-2--2-3--3-3--3--------|
G---------0--0-0--0-2--2-2--2--------|
D--2-2--2-0--0-0--0-----------2--2-2-|
A--2-2--2-2--2-2--2-----------2--2-2-|
E--0-0--0-3--3-3--3-----------0--0-0-|


Chorus
E------3-3--2-2--3-2------3-3--2-2-------------|
B------3-3--3-3--3-3------2-2--3-3-------------|
G------0-0--2-2--0-2------0-0--2-2--5----------|
D-2-2--0-0-------0---2-2--0-0-------5--2---2-2-|
A-2-2--2-2-------2---2-2--3-3-------3--2---2-2-|
E-0-0--3-3-------3---0-0--3-3----------0---0-0-|

THAT'S THE SONG!!!
LOOKS EASY, FUN TO PLAY THOUGH!
Добавлено: 23.03.2012
Другие материалы по этой песне:
  • Аккорды и текст

Страница создана 23.03.2012
http://primanota.ru/buckcherry/all-night-long-chords.htm
Привет, Гость.
Предлагаем пройти революционный курс по гитаре.
Подарок от PrimaNota.Ru, забирай!