PrimaNota.ru - самый крупный в мире бесплатный архив песенных текстов, аккордов, табулатур и нот


Buck Owens - Buckaroo - таба, видео

Регистрация Запомнить меня
Войти через:  Facebook Google Twitter Vk Yandex Mail.ru

Buck Owens - Buckaroo - таба, видео

Печатать
Просмотров: 134
Уроки эстрадного вокала в Санкт-Петербурге
intro:

   D               G               D
Eb----0h2-3-2-0-------5h7-8-7-5-------0h2-3-2---|
Bb---3----------3----8----------8----3--------3-|
Gb--2---------------7---------------2-----------|
Db-0---------------0---------------0------------|
Ab----------------------------------------------|
Eb----------------------------------------------|

   A
Eb----------------------|
Bb--2-2p0--3-2-0-2------|
Gb--2-2p0--2-2-0-2------|
Db----------------------|
Ab-0-----0--------------|
Eb----------------------|

   D               G               D       A
Eb----0h2-3-2-0-------5h7-8-7-5-------3------------------|
Bb---3----------3----8----------8----3-3-----2-2p0-3-2-0-|
Gb--2---------------7---------------2---2----2-2p0-2-2-0-|
Db-0---------------0---------------0---------------------|
Ab-----------------------------------------0------0------|
Eb-------------------------------------------------------|

  *Rhythm Guitar
  D G A  D G A

        D               G               D
Eb---------0h2-3-2-0-------5h7-8-7-5-------0h2-3-2---|
Bb--------3----------3----8----------8----3--------3-|
Gb-------2---------------7---------------2-----------|
Db------0---------------0---------------0------------|
Ab-0-2-4---------------------------------------------|
Eb---------------------------------------------------|

Keep playing this until you come to the Bridge.

Bridge:
   D     A                       D              Em
Eb------------------------------------0h2-3-2-0-------0----|
Bb---------2-2p0-3-2-0-2-------------3---------3-----0-0---|
Gb---------2-2p0-2-2-0-2------------2---------------0---0--|
Db---------------------------------0---------------2-----2-|
Ab-5-4-2-0------0----------------0----------------2--------|
Eb-----------------------------------------------0---------|

  A
Eb----------------------|
Bb--2-2p0--3-2-0-2------|
Gb--2-2p0--2-2-0-2------|
Db----------------------|
Ab-0-----0--------------|
Eb----------------------|

D               G               D
Eb----0h2-3-2-0-------5h7-8-7-5-------0h2-3-2---|
Bb---3----------3----8----------8----3--------3-|
Gb--2---------------7---------------2-----------|
Db-0---------------0---------------0------------|
Ab----------------------------------------------|
Eb----------------------------------------------|

A
Eb----------------------|
Bb--2-2p0--3-2-0-2------|
Gb--2-2p0--2-2-0-2------|
Db----------------------|
Ab-0-----0--------------|
Eb----------------------|

D               G               D       A
Eb----0h2-3-2-0-------5h7-8-7-5-------3------------------|
Bb---3----------3----8----------8----3-3-----2-2p0-3-2-0-|
Gb--2---------------7---------------2---2----2-2p0-2-2-0-|
Db-0---------------0---------------0---------------------|
Ab-----------------------------------------0-------------|
Eb-------------------------------------------------------|

 *Rhythm Guitar
  D G A  D G A

Steel Guitar Solo:

Bridge:
   D     A                       D              Em
Eb----------------------------------0h2-3-2-0-------0----|
Bb---------2-2p0-2-0-3-2-0---------3---------3-----0-0---|
Gb---------2-2p0-2-0-2-2-0--------2---------------0---0--|
Db-------------------------------0---------------2-----2-|
Ab-5-4-2-0------0-------------------------------2--------|
Eb---------------------------------------------0---------|

A
Eb----------------------|
Bb--2-2p0--3-2-0-2------|
Gb--2-2p0--2-2-0-2------|
Db----------------------|
Ab-0-----0--------------|
Eb----------------------|
Добавлено: 20.03.2012
Другие материалы по этой песне:

Страница создана 20.03.2012
http://primanota.ru/buck-owens/buckaroo-chords.htm
Привет, Гость.
Предлагаем пройти революционный курс по гитаре.
Подарок от PrimaNota.Ru, забирай!