PrimaNota.ru - самый крупный в мире бесплатный архив песенных текстов, аккордов, табулатур и нот


Buck-o-nine - Less Than Comfortable - бас-таба, видео

Регистрация Запомнить меня
Войти через:  Facebook Google Twitter Vk Yandex Mail.ru

Buck-o-nine - Less Than Comfortable - бас-таба, видео

Печатать
Просмотров: 123
this is played on a 5-string bass but i dont have a 5-string so i had to change it a 
bit.

questions/comments.....bbuccaneerfan87@comcast.net

h-hammer on
p-pull off

basic song....really only 2 parts

intro/verse

g-----------------------------------|
d-----------------------------------|
a---6p4---------------------6p4h6---|x2
e---------6--4--2--2----------------|


g-----------------------------------|(not exact because no B string)
d-----------------------------------|
a--6p4--------6--6------------------| x2
e-------6--4---------2--2-----------|

repeat multiple times


Chorus

root/5ths used here...you can change this part up for a more unique sound
g------44--------------88--------------------------------------|
d----6----x2---------8------x2-------66--------------88--------|
a--4---------------6---------------6----x2---------8-----x2----|
e--------------------------------4---------------6-------------|

thats basically it for this tab
Добавлено: 17.04.2012
Другие материалы по этой песне:
  • Аккорды и текст

Страница создана 17.04.2012
http://primanota.ru/buck-o-nine/less-than-comfortable-chords.htm
Привет, Гость.
Предлагаем пройти революционный курс по гитаре.
Подарок от PrimaNota.Ru, забирай!