PrimaNota.ru - самый крупный в мире бесплатный архив песенных текстов, аккордов, табулатур и нот


Btk - Peppyrock - бас-таба, видео

Регистрация Запомнить меня
Войти через:  Facebook Google Twitter Vk Yandex Mail.ru

Btk - Peppyrock - бас-таба, видео

Печатать
Просмотров: 122
Уроки эстрадного вокала в Санкт-Петербурге
ALBUM: Birth Thru Knowledge
SONG: Peppyrock
TABBED BY: smashguy37@yahoo.com


MAIN RIFF:

G |-----------------|-----------------|
D |-----5-----------|---3-------------|
A |-3-------1-2-3---|-------0---1---2-|
E |---------------1-|-----------------|
    1 & 2 & 3 & 4 &   1 & 2 & 3 & 4 &

BRIDGE:

          4x        "'Cause I know..."
G |-----------------|-----------------|
D |-----------------|-----------------|
A |-----------------|---------4-3-2-0-|
E |-2-2-0-2---------|-2-2-0-2---------|
    1 & 2 & 3 & 4 &   1 & 2 & 3 & 4 &


http://en.wikipedia.org/wiki/Birth_Through_Knowledge

http://www.youtube.com/watch?v=b2qEwePLQgI
Добавлено: 10.08.2013
Другие материалы по этой песне:
  • Аккорды и текст

Страница создана 10.08.2013
http://primanota.ru/btk/peppyrock-chords.htm
Привет, Гость.
Предлагаем пройти революционный курс по гитаре.
Подарок от PrimaNota.Ru, забирай!