PrimaNota.ru - самый крупный в мире бесплатный архив песенных текстов, аккордов, табулатур и нот


Bt - Satellite - текст песни, таба, видео

Регистрация Запомнить меня
Войти через:  Facebook Google Twitter Vk Yandex Mail.ru

Bt - Satellite - текст песни, таба, видео

Печатать
Просмотров: 206
BT - Satellite
Tabulated by: Matt Fry
Comments or Corrections - e-mail me
v_2mattf@hotmail.com

Although this song is a techno song it has a really cool guitar part.
I haven't written out the bass part yet, coming soon.

Tuning: full step down

Transition from Intro static->Intro to verse: x1
Transition from Verse->Chorus: x1

--------------
--0--0--0-0---
--5--3--1-1---
--6--4--2-2---
--6--4--2-2---
--4--2--0-0---

Intro to verse: x2

-----6---6---6-------4---4---4r-2-------6---6---6-------2---2---2-----
----7---7---7-7-----5---5---5----------7---7---7-7-----2---2---2-4----
----------------------------------------------------------------------
-6-----6---6-----2-----2---2--------9-----9---9-----4-----4---4-------
----------------------------------------------------------------------
----------------------------------------------------------------------

Verse: x2

-----6---6---6-------4---4---4r-2-------6---6---6-------2---2---2-----
----7---7---7-7-----5---5---5----------7---7---7-7-----2---2---2-4----
----------------------------------------------------------------------
-6-----6---6-----2-----2---2--------9-----9---9-----4-----4---4-------
----------------------------------------------------------------------
----------------------------------------------------------------------

Chorus: x8

-------------------------
-------------------------
-------------------------
--2--2--4-4--6--6--6-6---
--2--2--4-4--6--6--6-6---
--0--0--2-2--4--4--4-4---

Format:
Static
Transition
Intro to verse
verse
Transition
chorus
static
Intro to verse
verse
Transition
Chorus x2

     
Добавлено: 05.12.2013
Другие материалы по этой песне:
  • Аккорды и текст

Страница создана 24.08.2013
http://primanota.ru/bt/satellite-chords.htm
Привет, Гость.
Предлагаем пройти революционный курс по гитаре.
Подарок от PrimaNota.Ru, забирай!