PrimaNota.ru - самый крупный в мире бесплатный архив песенных текстов, аккордов, табулатур и нот


Bt - Running Down The Way Up - текст песни, таба, видео

Регистрация Запомнить меня
Войти через:  Facebook Google Twitter Vk Yandex Mail.ru

Bt - Running Down The Way Up - текст песни, таба, видео

Печатать
Просмотров: 182
-------------------------------------------------------------------------------
                             RUNNING DOWN THE WAY UP - Bt
-------------------------------------------------------------------------------
Tabbed by: RC
E-mail:

Tuning: standard

  strumming:

 |d----u-d-u-d---u-d-u-d-u-d-u--d----d--u--d-u--d----u--d--d--ud--|

e|-----3-x-x-3---3-x-x-3-3-x-x-------8--8--x-x--11---11-x---------|
B|-----4-x-x-4---4-x-x-4-4-x-x-------9--9--x-x--9-----9-x-----6---|
G|-----3-x-x-3---3-x-x-3-3-x-x-------8--8--x-x--8-----8-x---------|
D|3h5----x-x-5---5-x-x-5-5-x-x--8h10-10-10-x-x--10---10-x--5/7-5\3|
A|----------------------------------------------------------------|
E|----------------------------------------------------------------|

************************************

| /   slide up
| \   slide down
| h   hammer-on
| p   pull-off
| ~   vibrato
| +   harmonic
| x   Mute note
| b   Bend
| pb  Pre-bend
| br  Bend release
| pbr Pre-bend release
| brb Bend release bend

************************************
Добавлено: 27.05.2014
Другие материалы по этой песне:
  • Аккорды и текст

Страница создана 13.04.2012
http://primanota.ru/bt/running-down-the-way-up-chords.htm
Привет, Гость.
Предлагаем пройти революционный курс по гитаре.
Подарок от PrimaNota.Ru, забирай!