PrimaNota.ru - самый крупный в мире бесплатный архив песенных текстов, аккордов, табулатур и нот


Bryce Vine - Sour Patch Kids - таба, видео

Регистрация Запомнить меня
Войти через:  Facebook Google Twitter Vk Yandex Mail.ru

Bryce Vine - Sour Patch Kids - таба, видео

Печатать
Просмотров: 112
Bryce Vine
Sour Patch Kids
Lazy Fair

This is a really fun and easy song to play. Just listen to the song for the timing.
Have fun!



E----7--9--12--9--7---------7----------------| X2
B-9------------------9---9-----9--7--9-------|
G--------------------------------------------|
D--------------------------------------------|
A--------------------------------------------|
E--------------------------------------------|

E--------------------------------------------| X4
B----9--7-----9--7-----9--7-----9--7---------|
G-9--------9--------9--------9---------------|
D--------------------------------------------|
A--------------------------------------------|
E--------------------------------------------|
Добавлено: 24.06.2016
Другие материалы по этой песне:
  • Аккорды и текст

Страница создана 24.06.2016
http://primanota.ru/bryce-vine/sour-patch-kids-chords.htm
Привет, Гость.
Предлагаем пройти революционный курс по гитаре.
Подарок от PrimaNota.Ru, забирай!