PrimaNota.ru - самый крупный в мире бесплатный архив песенных текстов, аккордов, табулатур и нот


Bryan John Appleby - Pride Of Man - таба, видео

Регистрация Запомнить меня
Войти через:  Facebook Google Twitter Vk Yandex Mail.ru

Bryan John Appleby - Pride Of Man - таба, видео

Печатать
Просмотров: 75
Pride of Man by Bryan John Appleby

Ive been wanting to learn this song since the second
 I heard it but could not find a tab for it anywhere, 
and now that I made the tab I realized I cant 
find the official lyrics anywhere either so 
sorry that those are not included.

I tried listing the chord shape for all 
the little finger pickings he does to help you out.

Note: The second time he plays the intro 
there is I believe a two-note difference from
 the first time that is listed in the tab.  Also 
the final chorus has a slightly different ending to it.

INTRO

E||----------------------------------------------|
B||-------0-------------------------3-0----------|
G||-----0---0-0h2-0--------0---------------------|
D||-0h2----------------0h2-----------------------| 
A||----------------------------------------------|
E||-3--3-3-3--3--3-3-3-3--3-3-3-3-3-3-3-3--------|


E||----------------------------------------------|
B||-------0--------------------------------------|
G||-----0---0-0h2-0--------0--------0h2-0--------|
D||-0h2----------------0h2-----------------------| 
A||----------------------------------------------|
E||-3--3-3-3--3--3-3-3-3--3-3-3-3-3-3-3-3-3------|


E||-----------------------------------------------------------------|
B||---------0----------0--------------------------------------------|
G||------0----0------0---0------0------------------0h2-0------------|
D||-0h2---------0h2--------0h2-----------0h2---0h2------------------| 
A||-0---0--0-0--3---3-3-3-------------------------------------------|
E||------------------------3---3-3-3-3-3-3--3--3---3-3-3-3-3-3-3-3--|

VERSE 1

     G
E||-----------|
B||-----------|
G||----0------|
D||--0--------| x24
A||---2-------|
E||-3---------|
     
     Am                  C
E||----------------------------------------------|
B||----1----1----1---------1----1----1----1------|
G||--2----2----2----2-2--0----0----0----0--------|
D||---2----2----2---------2----2----2----2-------| 
A||-0----0----0----0-2--3----3----3----3---------|
E||----------------------------------------------|

        Am       C                G
E||---------------------------------------------|
B||----1----1----1----1----3----3----3----3-----|
G||--2----2----0----0----0----0----0----0-------|
D||---2----2----2----2----0----0----0----0------| 
A||-0----0----3----3----------------------------|
E||---------------------3----3----3----3--------|


CHORUS
       Em            C
E||-----------------------------------------|
B||----0----0----0----1----1----1----1------|
G||--0----0----0----0----0----0----0--------|
D||---2----2----2----2----2----2----2-------| x2
A||----------------3----3----3----3---------|
E||-0----0----0-----------------------------|

        Am     C                 Am  Em     C
E||---------------------------------------------------|
B||----1----1----1----1----0----0----1----1----1----1-|
G||--2----2----0----0----2----0----0----0----0----0---|
D||---2----2----2----2----2----2----2----2----2----2--| 
A||-0----0----3----3----0---------3----3----3----3----|
E||--------------------------0------------------------|

         Em                  C      G
E||--------------------------------------------|
B||----0----0----0----0----3----0----0----0----|
G||--0----0----0----0----0----0----0----0------|
D||---2----2----2----2----0----0----0----0-----| 
A||----------------3---------------------------|
E||-0----0----0---------3----3----3----3-------|

       Em                     C               G
E||-----------------------------------------------|
B||----0----0----0----1----1----3----3----3----3--|
G||--0----0----0----0----0----0----0----0----0----|
D||---2----2----2----2----2----0----0----0----0---| 
A||----------------3----3-------------------------|
E||-0----0----0--------------3----3----3----3-----|

VERSE 2
     G
E||-----------|
B||-----------|
G||----0------|
D||--0--------| x16
A||---2-------|
E||-3---------|

      Am                  C
E||----------------------------------------------|
B||----1----1----1---------1----1----1----1------|
G||--2----2----2----2-2--0----0----0----0--------|
D||---2----2----2---------2----2----2----2-------| 
A||-0----0----0----0-2--3----3----3----3---------|
E||----------------------------------------------|

        Am       C                G
E||---------------------------------------------|
B||----1----1----1----1----3----3----3----3-----|
G||--2----2----0----0----0----0----0----0-------|
D||---2----2----2----2----0----0----0----0------| 
A||-0----0----3----3----------------------------|
E||---------------------3----3----3----3--------|

CHORUS

      Em             C
E||-----------------------------------------|
B||----0----0----0----1----1----1----1------|
G||--0----0----0----0----0----0----0--------|
D||---2----2----2----2----2----2----2-------| x2
A||----------------3----3----3----3---------|
E||-0----0----0-----------------------------|
       Am      C        Am    Em   C
E||---------------------------------------------------|
B||----1----1----1----1----0----0----1----1----1----1-|
G||--2----2----0----0----2----0----0----0----0----0---|
D||---2----2----2----2----2----2----2----2----2----2--| 
A||-0----0----3----3----0---------3----3----3----3----|
E||--------------------------0------------------------|

      Em            C        G
E||--------------------------------------------|
B||----0----0----0----0----0----0----0----0----|
G||--0----0----0----0----0----0----0----0------|
D||---2----2----2----2----0----0----0----0-----| 
A||----------------3---------------------------|
E||-0----0----0---------3----3----3----3-------|

      Em            C              G
E||-----------------------------------------------|
B||----0----0----0----1----1----3----3----3----3--|
G||--0----0----0----0----0----0----0----0----0----|
D||---2----2----2----2----2----0----0----0----0---| 
A||----------------3----3-------------------------|
E||-0----0----0--------------3----3----3----3-----|

INTRO AGAIN

E||----------------------------------------------|
B||-------0-------------------------3-0----------|
G||-----0---0-0h2-0--------0---------------------|
D||-0h2----------------0h2-----------------------| 
A||----------------------------------------------|
E||-3--3-3-3--3--3-3-3-3--3-3-3-3-3-3-3-3--------|

E||----------------------------------------------|
B||-------0--------------------------------------|
G||-----0---0-0h2-0--------0--------0h2-0--------|
D||-0h2----------------0h2-----------------------| 
A||----------------------------------------------|
E||-3--3-3-3--3--3-3-3-3--3-3-3-3-3-3-3-3-3------|


E||-----------------------------------------------------------------|
B||---------0--------3-0--------------------------------------------|
G||------0----0----------0------0------------------0h2-0------------|
D||-0h2---------0h2--------0h2-----------0h2---0h2------------------| 
A||-0---0--0-0--3---3-3-3-------------------------------------------|
E||------------------------3---3-3-3-3-3-3--3--3---3-3-3-3-3-3-3-3--|

Interlude, let those first six chords ring a little. listen and youll know
      
E||-0-0--0-0-0-0-----------------------------------------|
B||-0-0--1-1-1-1----3---------3---------3----------------|
G||-0-0--2-0-2-0--0------0--0------0--0------0----0----0-|
D||-0-0--2-2-2-2---0---0-----0---0-----0---0----0----0---| 
A||-2-2--0-3-0-3--------2---------2---------2----2----2--|
E||-3-3----------3----3----3----3----3----3----3----3----|

Final Chorus
E||-----------------------------------------|
B||----0----0----0----1----1----1----1------|
G||--0----0----0----0----0----0----0--------|
D||---2----2----2----2----2----2----2-------| x2
A||----------------3----3----3----3---------|
E||-0----0----0-----------------------------|

E||----------------------------------------------------|
B||----1----1----1----1----0----0----1-0-------------0-|
G||--2----2----0----0----2----0----0-----0h2-0-----0---|
D||---2----2----2----2----2----2----2----------0h2-----| 
A||-0----0----3----3----0---------3---3-3---3-3---3-3--|
E||--------------------------0-------------------------|

E||--------------------------------------------|
B||----0----0----0----0----0----0----0----0----|
G||--0----0----0----0----0----0----0----0------|
D||---2----2----2----2----0----0----0----0-----| 
A||----------------3---------------------------|
E||-0----0----0---------3----3----3----3-------|

Slight ritardando here (slowing down)
E||--------------------------3----------|
B||----0----0----0----1----1-0----------|
G||--0----0----0----0----0---0----------|
D||---2----2----2----2----2--0----------| 
A||----------------3----3----2----------|
E||-0----0----0--------------3----------|

This is the first full-length tab I have submitted 
so please comment and let me know what you think and rate it up!
Добавлено: 24.10.2013
Другие материалы по этой песне:
  • Аккорды и текст

Страница создана 24.10.2013
http://primanota.ru/bryan-john-appleby/pride-of-man-chords.htm
Привет, Гость.
Предлагаем пройти революционный курс по гитаре.
Подарок от PrimaNota.Ru, забирай!