PrimaNota.ru - самый крупный в мире бесплатный архив песенных текстов, аккордов, табулатур и нот


Bryan John Appleby - Honey Jars - таба, видео

Регистрация Запомнить меня
Войти через:  Facebook Google Twitter Vk Yandex Mail.ru

Bryan John Appleby - Honey Jars - таба, видео

Печатать
Просмотров: 264
song: honey jars
artist: bryan john appleby

as performed on kexp
http://www.youtube.com/watch?v=O7u7dO9e-8U

capo 6
numbers relative to capo (fret 6 = 0)
chords named by relative open shape, not by true sound

     E A D G B e
G  = 3 2 0 0 0(0)
Em = 0 2 2 0 0(0)
C  =(3)3 2 0 1(0)
Am = X 0 2 2 1(0)
G2 = 3 X 2 0 1(3)
C2 = X 3 2 0 3(0)


********************************************
Intro i                                    *
    G                 Em                   *
e----------------------------0--------     *
B-----0----0----0----0--0--------0----     *
G-----0--0-----0----0------0---0---0--     *
D---------0-------------2---2---2---0-     *
A-------------------------------------     *
E---3-------3/5--5/7--0---------------     *
                                           *
********************************************
                                           *
Intro ii                                   *
    G                 Em                   *
e----------------------------------------- *
B-----0----0----0----0--0----3/5p3r0---0-- *
G-----0--0-----0----0---------------0h2-0- *
D---------0-------------2----------------- *
A----------------------------------------- *
E---3-------3/5--5/7--0------0------------ *
                                           *
Intro iii                                  *
    G                 Em                   *
e------------------------------------------*
B-----0----0----0----0--0----0-------------*
G-----0--0-----0----0------0-----0---------*
D---------0-------------2---2-2/4-4\2r0----*
A--------------------------------------2r0-*
E---3-------3/5--5/7--0--------------------*
                                           *
********************************************

********************************************
      "though i'm blind..."                *
                                           *
".....blind.......i...see........."        *
e----------------------------------        *
B----0---0---0---0---0---0---0---0-        *
G--0---0---0---0---0---0---0---0---        *
D-------0---0---0---0---0---0---0--        *
A-2-0-------------7---5---5---5----        *
E-----3---5---7--------------------        *
                                           *
".................without me...."          *
e--------------------------------          *
B----0---0---0---0---0---0---0---          *
G--0---0---0---0---0---0---0---0-          *
D-------0---0---0---0---0---0----          *
A-2-0-------------7---9---2---2--          *
E-----3---5---7------------------          *
                                           *
"..body.....my..mind...................."  *
e----------------------------------------  *
B----------0---0---0---0---0---0---0---0-  *
G--0-0-0-0---0---0---0---0---0---0---0---  *
D-0-------0---0---0---0---7---7---7---7--  *
A---2-0-------------7---6---6---6---6----  *
E-------3---5---7------------------------  *
                                           *
".....you..........you"                    *
e----------------------                    *
B----1---1---1---1--0--                    *
G--0---0---0---0----0--                    *
D---2---2---2---2---0--                    *
A-3---3---3---3--------                    *
E------------------3---                    *
                                           *
********************************************


-SONG-

[Intro i-ii-iii]

       C           G
i pick up a broken comb
       Em                   G
run it through my thin grey hair
         Am             Em
though i don't have any plans tonight
        C        G
i'm not going anywhere
       C                     G
well i should have seen this coming
      Em           G
don't know why i'm surprised
          Am            Em
cos every vessel on its way down
           C
takes with it the captain's life


[see "though i'm blind..." tab above]
though i'm blind my dear i see
the parade goes on without me
my body aches my mind it weeps
for you .... for you

[Intro i x2]

            C                 G
tonight i'm locked outside my building
        Em                 G
guess i must have lost the keys
             Am         Em
so i'll just sit on the sidewalk
            C               G
and let the snow fall on my knees
         C            G
and if i made it to a payphone
        Em               G
i don't know who i would call
       Am                Em
so for now i'll close my eyes and rest
           C       
my crooked back against the wall

[G-G2 x3]

            C                G
i read that old men will see visions
          Em              G
and young men will follow dreams
      Am                 Em
and i believed it when i read it
           C            G
i see your face in everything
         C              G
now your honey jars are frozen
           Em                     G
and in the window your books have browned
            Am              Em
and there's too much room inside our bed
             C
i think i'll join you in the ground


[see "though i'm blind..." tab above]
though i'm blind my dear i see
let the chorus sing without me
my body breaks my mind it sleeps
     C   C2
with you oh oh oh

[G-G2 x3 - G]


tab by chris kaprys {youtube:dreamknotter}
Добавлено: 30.10.2013
Другие материалы по этой песне:
  • Аккорды и текст

Страница создана 30.10.2013
http://primanota.ru/bryan-john-appleby/honey-jars-chords.htm
Привет, Гость.
Предлагаем пройти революционный курс по гитаре.
Подарок от PrimaNota.Ru, забирай!