PrimaNota.ru - самый крупный в мире бесплатный архив песенных текстов, аккордов, табулатур и нот


Bryan Adams - Youe Still Beautiful To Me - аккорды и текст, видео

Регистрация Запомнить меня
Войти через:  Facebook Google Twitter Vk Yandex Mail.ru

Bryan Adams - Youe Still Beautiful To Me - аккорды и текст, видео

Печатать
Просмотров: 96
Youe Still Beautiful To Me
Bryan Adams
Intro: Em G G/A D

picking...
|-----------------|----------------|3-3-3-3-2-0---0-|2-----2------|
|-----------------|----------------|3-3-3-3-3-3-3-3-|3-----3------|
|-----------------|----0-----------|----------------|-------------|
|-2/4---4\2-0---0-|--2-------------|----------------|-------------|
|-------------2---|2---------------|----------------|-------------|
|-----------------|----------------|----------------|-------------|

|----------------|----------------|3-3-3-3-2-0---0-|2------2------|
|----------------|----------------|3-3-3-3-3-3-3-3-|3------3------|
|----------------|----0-----------|----------------|--------------|
|--------0-2/4\2-|--2-------------|----------------|--------------|
|------2---------|2---------------|----------------|--------------|
|----------------|----------------|----------------|--------------|

|------------------|
|------------------|
|------------------|
|-2/4-4\2h0----2h0-|
|----------2-------|
|------------------|



D Dsus4 D Dsus4 D
Turn out the lights and close the door.
D Dsus4 D Dsus4 D
Put your head on the pillow, let me keep ya warm.
Dsus4 D Dsus4 D
I wanna run my hands across your face.
Dsus4 D Dsus4 D
Yeah, lyin' beside you still the perfect place. (Oh yeah)
Bm F#m/A *Em7
We're still goin' strong;
Bm F#m/A *Em7
So glad that you came along.
D/A A D/A A7 D
Yeah babe, in every way, you're still beautiful to me.
D/A A
I just have to say
D/A A7 D
You're still beautiful to me.
Em G G/A D Dsus D
'N' it's been a long time baby.



D
Lay back baby, close your eyes.

Let me do everything your heart desires.

When I think of the years makin' love to you;

There still ain't nothing that I'd rather do.
Bm F#m/A *Em7
Yeah, there's something I can't deny
Bm F#m/A *Em7
You sure know how to move this guy.
D/A A D/A A7 D
Ya babe, in every way, you're still beautiful to me.
D/A A
I just have to say,
D/A A7 D
You're still beautiful to me.
Em G G/A D Dsus4 D
Can't ya see?

Em G G/A D Dsus4 D


*Em11 *Gmaj9
Still feels good, still runs deep;
D A
When you get close babe, I still get weak,
*Em7(add11) *Gmaj9
'Cause in these arms is where you belong.
Bm F#m/A *Em7
We're still goin' strong;
Bm F#m/A *Em7
So glad that you came along
Bm F#m/A *Em7
Hey babe, you're still number one.
D/A A
Oh, can't you see
D/A A7 D
You're still beautiful to me
D/A A D/A A7 D
Yeah, you'll always be so beautiful to me.
C G D/A A
Yeah babe,
D
In every way, you're still beautiful to me.

{Em G D Dsus4 D}repeat 6 times and fade.
Добавлено: 02.03.2014
Другие материалы по этой песне:
  • Аккорды и текст

Страница создана 02.03.2014
http://primanota.ru/bryan-adams/youe-still-beautiful-to-me-chords.htm
Привет, Гость.
Предлагаем пройти революционный курс по гитаре.
Подарок от PrimaNota.Ru, забирай!