PrimaNota.ru - самый крупный в мире бесплатный архив песенных текстов, аккордов, табулатур и нот


Bryan Adams - Fits Ya Good - аккорды и текст, таба, видео

Регистрация Запомнить меня
Войти через:  Facebook Google Twitter Vk Yandex Mail.ru

Bryan Adams - Fits Ya Good - аккорды и текст, таба, видео

Печатать
Просмотров: 196
Авторы: Bryan Adams, Jim Vallance

Fits Ya Good
Bryan Adams
E F#7add11
Waiting here for the working day to end
E F#7add11
Five o'clock and these walls just move in closer
A
You get home so down and worn out
B
It's understood

F#7add11 E
Fits ya good - (4)

E F#7add11
Was a time you were bringing me down
E F#7add11
But I know it's just the way you live your life

E|-------6-7-6--------------------|
B|-----7-------7----------------7-|
G|---6-----------6-6h8-6-------6--|
D|------------------------9-------|
A|--------------------------------|
E|--------------------------------|

A
But you don't know like I know, baby
B
I did all that I could

F#7add11 E
Now it fits ya good
It fits ya good
Fits ya good
It fits ya good

Solo:

E|--------------------------------------------------------|
B|--------------------------------------------------------|
G|----------6---8-8-8-8---7/8-8----8p6-------6------------|
D|----6-8-9----------------------------9-6/8------8p6---8-|
A|--9-----------------------------------------------------|
E|--------------------------------------------------------|

E|---------------------------------------------------------------------------6-|
B|-------------------------------------------------------------------------7---|
G|-----8-9-9-9-9-9-9-9-9-9-9-9-9-9-9-9---9p8----8------------------------6-----|
D|-8/9---------------------------------------11---11-9--9h11-11-11--9-8--------|
A|-----------------------------------------------------------------------------|
E|-----------------------------------------------------------------------------|

E|-------9---------------11-11-11-9-9-9------------9-9-9--12p9----9----------|
B|--9-11---9-11-11p9--------------------9-9-9----9-------------11----11p9----|
G|--------------------------------------------11--------------------------11-|
D|---------------------------------------------------------------------------|
A|---------------------------------------------------------------------------|
E|---------------------------------------------------------------------------|

E|--9-12-11-9----9-------------------------------------------------|
B|------------12---12-11-9-11-9----9-------------------------------|
G|------------------------------11---9-11-8-9----------------------|
D|--------------------------------------------11-8-----------------|
A|-------------------------------------------------9-11-8-9-8-9p8--|
E|-----------------------------------------------------------------|

E|--------------------------|
B|----------------11-11--11-|
G|--------11---11--------11-|
D|------11---------------11-|
A|--------------------------|
E|-11-9---------------------|

A
But you don't know , oh no
B
I did all that I could

F#7add11 E
Fits ya good - (4)
Добавлено: 17.10.2013
Другие материалы по этой песне:
  • Аккорды и текст

Страница создана 13.04.2012
http://primanota.ru/bryan-adams/fits-ya-good-chords.htm
Привет, Гость.
Предлагаем пройти революционный курс по гитаре.
Подарок от PrimaNota.Ru, забирай!