PrimaNota.ru - самый крупный в мире бесплатный архив песенных текстов, аккордов, табулатур и нот


Brutality Will Prevail - Sleep Paralysis - таба, видео

Регистрация Запомнить меня
Войти через:  Facebook Google Twitter Vk Yandex Mail.ru

Brutality Will Prevail - Sleep Paralysis - таба, видео

Печатать
Просмотров: 74
Уроки эстрадного вокала в Санкт-Петербурге
Notations used in this tab:
~ = hold note
(BU)(BD) = bend up, then bend back down.
(BU)~~~(BD) = Bend up, hold, then bend back down.

Guitar
C |-----5-8~-----5-8~------5-7~-------5-7~----------------------------5~-------5-7~------5-7~--|
G |----5--------5---------5----------5-----------5---8~------5---8~---5~------5---------5------|
Eb|---5--------5---------5----------5----------5---5-------5---5------5~-----5---------5-------|
A#|--------------------------------------------------------------------------------------------|
F |0--------0---------0----------0----------0-----------0-----------------0---------0----------|
A#|--------------------------------------------------------------------------------------------|


Repeat 4x:

C |-3~---3-------------------------------------------------|
G |-5~-5---5----------8-----7------------------------------|
Eb|-5~------5-------5-5---5-5------------------------------|
A#|--------------------------------------------------------|
F |--------------0------0----------------------------------|
A#|------------0-------0-----------------------------------|

Repeat 4x:

       A)                     B)
C |-3---3---3--3----10~----2--2--2--2---7~---------------|
G |--5---5---5--5------8~---5--5--5--5----7--------------|
Eb|---5---5------5-----------5--5-----5----9-------------|
A#|------------------------------------------------------|
F |------------------------------------------------------|
A#|------------------------------------------------------|

Final time instead of playing part B), play:

C |-2~--2(BU)(BD)---------|
G |-0~--------------3~----|
Eb|-----------------------|
A#|-----------------------|
F |-----------------------|
A#|-----------------------|

Build up to distortion:
    (x9)              (x17)                           (x16)                            (x7)
C |-2-2-2-2-2-2-2-2-2-3-3-3-3-3-3-3-3-3-3-3-3-3-3-3-3-2-2-2-2-2-2-2-2-2-2-2-2-2-2-2-2-3-3-3-3-3-3-3|
G |-5-5-5-5-5-5-5-5-5-5-5-5-5-5-5-5-5-3-5-5-5-5-5-5-5-5-5-5-5-5-5-5-5-5-5-5-5-5-5-5-5-5-5-5-5-5-5-5|
Eb|-5-5-5-5-5-5-5-5-5-5-5-5-5-5-5-5-5-5-5-5-5-5-5-5-5-5-5-5-5-5-5-5-5-5-5-5-5-5-5-5-5-5-5-5-5-5-5-5|
A#|------------------------------------------------------------------------------------------------|
F |------------------------------------------------------------------------------------------------|
A#|------------------------------------------------------------------------------------------------|


LOTS OF DISTORTION: (repeat 4x)

C |-----3~-3-3-3------2~-2-2-2-----3--3-3-3-3-5-5-5-5-2-2-2----|
G |-----5~-5-5-5------5~-5-5-5-----5~-5-5-5-5-5-5-5-5-5-5-5----|
Eb|-----5~-5-5-5------5~-5-5-5-----5~-5-5-5-5-5-5-5-5-5-5-5----|
A#|0~-0---------0~-0----------0~-0-----------------------------|
F |0~-0---------0~-0----------0~-0-----------------------------|
A#|0~-0---------0~-0----------0~-0-----------------------------|

Repeat 8x:

C |-------------|
G |-------------|
Eb|-------------|
A#|-------------|
F |--0~~-0~-----|
A~|--0~~-0~-----|

This clean part has a really weird rhythm to it (which is probably not tabbed 
perfectly), just listen to it and play it the best you can.
This section is tabbed more as a guide... (repeat 6x):

C |--------3~-3-3--3~-3-3--3~-3-3--3~-3-3--3-3-3---------3~-3-3--3--------2~-2-2--2-----------|
G |--------3~-5-5--5~-5-5--5~-5-5--5~-5-5--5-5-5---------5~-5-5----5------2~-2-2----5---------|
Eb|-----5--5~-5-5--5~-5-5--5~-5-5--5~-5-5--5-5-5------5--5~-5-5--------5--5~-5-5--------------|
A#|-------------------------------------------------------------------------------------------|
F |---0---------------------------------------------0----------------0------------------------|
A#|-0----------------------------------------------0----------------0-------------------------|

Awesome creepy distorted riff (let ring throughout) - start of this section overlaps 
with end of previous clean section:

C |----------------------------------------------------|
G |------------------------------3~--------------------|
Eb|-----3~--4~-3------------2~-----2-------------------|
A#|---2---2-----2~-2s1-0~-0----0-----0-2(BU)(BD)-------|
F |-0~-------------------------------------------------|
A#|----------------------------------------------------|

Creepy riff PT 2 (lots of vibrato)
Last time the powerchords on 6th string are distorted (goes into distorted solo riff) repeat 4x:

C |--------------------------------------------------------------|
G |--------5~-5--------------------------------------------------|
Eb|----3-4------4~-3~-----------3----------0---------------------|
A#|--2-----------------2p0----2---2~------2--2~----5~~-7~-4~-----|
F |-------------------------0---------3-2----------5~~-7~-4~-----|
A#|----------------------------------------------0-5~~-7~-4~-----|

Distorted riff (to end)
(solo starts after 2 repeats, riff continues in background)

C |------------------------------------------------------|
G |------------------------------------------------------|
Eb|------------------------------------------------------|
A#|-2~-0-2~-5~-7-4~--9--7-9~--5~-7-4~--------------------|
F |-2~-0-2~-5~-7-4~--9~-7-9~--5~-7-4~--------------------|
A#|-2~-0-2~-5~-7-4~--9~-7-9~--5~-7-4~--------------------|

SOLO:

C |-7(BU)--------------------------------------------------------------------|
G |-8(BU)--8-10-8----8---8-10-10(BU)~~(BD)-8----8-10-10-10-10(BU)~~(BD)-8----|
Eb|---------------9~---9---------------------9~---------------------------9~-|
A#|--------------------------------------------------------------------------|
F |--------------------------------------------------------------------------|
A#|--------------------------------------------------------------------------|

------------------------------------|
--------8-10-8----8-10-8----8-------|
-7-9-9~--------9~--------9~---9~----|
------------------------------------|
------------------------------------|
------------------------------------|


Continue distorted riff to end....


Compiled with TabPlayer :: http://www.simoneperandini.com/tabplayer/
Добавлено: 25.07.2013
Другие материалы по этой песне:
  • Аккорды и текст

Страница создана 03.06.2013
http://primanota.ru/brutality-will-prevail/sleep-paralysis-chords.htm
Привет, Гость.
Предлагаем пройти революционный курс по гитаре.
Подарок от PrimaNota.Ru, забирай!