PrimaNota.ru - самый крупный в мире бесплатный архив песенных текстов, аккордов, табулатур и нот


Brutality Will Prevail - Illusions - таба, видео

Регистрация Запомнить меня
Войти через:  Facebook Google Twitter Vk Yandex Mail.ru

Brutality Will Prevail - Illusions - таба, видео

Печатать
Просмотров: 152
Уроки эстрадного вокала в Санкт-Петербурге
Drop A# Tuning
Track: Illusions by Brutality Will Prevail 

Part (A)
Lots of effect on these arpeggios.

C |--------------------------|
G |----------8----------6----|
Eb|--------7----------5------|
A#|------8----------7--------|
F |-7-10--------5-8----------|
A#|--------------------------|

Part (B)

C |------------------------------------------------------|
G |------------------------------------------------------|
Eb|------------------------------------------------------|
A#|----8-5-10br-5-8---7-7-7-5-7br--7-8-7-----------------|
F |------------------------------8-----------------------|
A#|------------------------------------------------------|

Part (C).
Tremolo picked (play note the number of times stated in bracket)

C |--------------------------------------------------------------------|
G |--------------------------------------------------------------------|
Eb|--------7(x8)----------------------------7(x8)-------------5(x16)---|
A#|-5(x16)-------8(x8)-7(x16)--------5(x16)-------8(x8)-7(x16)---------|
F |---------------------------8(x16)-----------------------------------|
A#|--------------------------------------------------------------------|

Part (D)

C |-----------------------|
G |-----------------------|
Eb|-----------------------|
A#|--5-0-3-7br-3--7-3-5---|
F |-----------------------|
A#|-----------------------|

Part (A) 4x
Part (B) 8x (5-8th times harmonised +8ve)
Part (C) 2x
Part (D) 4x

Sorry if it's a bit messy, this is the first text tab I have written!
Afaik the tab is 100% correct, but if you beg to differ, let me know!

Band website: http://www.myspace.com/brutalitywillprevail
Spotify link for track: http://open.spotify.com/track/4wRstxiM8I1BxOylH6v4vl
Добавлено: 27.04.2012
Вам также может быть интересно:
Другие материалы по этой песне:

Страница создана 27.04.2012
http://primanota.ru/brutality-will-prevail/illusions-chords.htm
Привет, Гость.
Предлагаем пройти революционный курс по гитаре.
Подарок от PrimaNota.Ru, забирай!