PrimaNota.ru - самый крупный в мире бесплатный архив песенных текстов, аккордов, табулатур и нот


Brutality Will Prevail - Cursed - таба, видео

Регистрация Запомнить меня
Войти через:  Facebook Google Twitter Vk Yandex Mail.ru

Brutality Will Prevail - Cursed - таба, видео

Печатать
Просмотров: 143
Уроки эстрадного вокала в Санкт-Петербурге
BRUTALITY WILL PREVAIL

Drop A# Tuning
Track: Cursed

This is my first tab. Some parts may not be spot on but I tried.

Intro
Repeat 4x

C |-------------------------|------------------------------------|
G |-------------------------|------------------------------------|
Eb|-----5---7^--5-----------|--------5----7^--5----------5/7-----|
A#|-7-7---7---------7-------|------7---7---------7-------7/9-----|
F |-0-----------------------|------------------------------------|
A#|-------------------------|-6--7-------------------------------|

C |------------5---------|--------------|--------------|
G |--------5-----5-------|--------5~----|--------3~----|
Eb|----5-----5-----5-----|----5---------|----4---------|
A#|-/3---3-----------6~--|--3---3-------|--2---2-------|
F |----------------------|--------------|--------------|
A#|----------------------|--------------|--------------|


Intro with band 3x?

C |-------------------------|------------------------------------|
G |-------------------------|------------------------------------|
Eb|-----5---7^--5-----------|--------5----7^--5----------5/7-----|
A#|-7-7---7---------7-------|------7---7---------7-------7/9-----|
F |-0-----------------------|------------------------------------|
A#|-------------------------|-6--7-------------------------------|

C |------------5---------|--------------|--------------|
G |--------5-----5-------|--------5~----|--------3~----|
Eb|----5-----5-----5-----|----5---------|----4---------|
A#|-/3---3-----------6~--|--3---3-------|--2---2-------|
F |----------------------|--------------|--------------|
A#|----------------------|--------------|--------------|


Cool hi hat part! bro. play 2x 

C |---------------------|--------------|
G |---------------------|--------------|
Eb|---------------------|--------------|
A#|---------------------|--------------|
F |--12--8--10--7~------|--8--10--5----|
A#|---------------------|--------------|

   When the vocals start. x2
   
C |--------------------|--------------|----------------|
G |--------------------|--pm----------|----------------|
Eb|--14---10---12---9--|--9-9-9-9-9-9-|----------------|
A#|--14---10---12---9--|--9-9-9-9-9-9-|-10---19---13~--|
F |--12---8----10---7--|--7-7-7-7-7-7-|-8----17---11~--|
A#|--------------------|--------------|----------------|


C |---------------------|--------------|---------------|
G |---------------------|--------------|---------------|
Eb|---------------------|--------------|---------------|
A#|--9--10--/19---------|-9--10--7-----|---19--17--19--|
F |--7--8---/17---------|-7--8---5-----|---17--15--17--|
A#|---------------------|--------------|---------------|

C |---------------------|--------------|---------------|
G |---------------------|--------------|---------------|
Eb|---------------------|--------------|---------------|
A#|--9--10--/19---------|-9--10--7-----|---19--17--19--|
F |--7--8---/17---------|-7--8---5-----|---17--15--17--|
A#|---------------------|--------------|---------------|


will have to figure the next part yourself up until...

'When i...SLEEEp"

C |-------------------------|--------------------------|
G |-------------------------|--------------------------|
Eb|-------------------------|--------------------------|
A#|--7---7---7---7----9-10--|-6---6---6---6---6---4--2-|
F |--5---5---5---5----7-8---|-4---4---4---4---4---2--0-|
A#|---0-0-0-0-0-0-0-0--0----|--0-0-0-0-0-0-0-0---------|

Repeat upto 2nd bar then..
C |------------------------|----------------------------------|
G |------------------------|----------------------------------|
Eb|------------------------|----------------------------------|
A#|--7---7---7---7----9-10-|-6---6------------------7---10--10|
F |--5---5---5---5----7-8--|-4---4------------------5---8---8-|
A#|---0-0-0-0-0-0-0-0------|--0-0-0-0-0-0-0-0-0-0-------------|


Then repeat this to the end. 

C |----------------------------------|--------------------------------|
G |----------------------------------|--------------------------------|
Eb|----------------------------------|--------------------------------|
A#|--7---7---7-----------------------|--7---7---7------4-4-----3-3----|
F |--5---5---5-----5--3--0---6--5--0-|--5---5---5------4-4-----3-3----|
A#|---0-0-0-0-0-0----------0---------|---0-0-0-0-0-0---4-4-0-0-3-3----|

              
Last chord is index on the F 5th and third finger on the A# 7th fret
Добавлено: 12.05.2012
Другие материалы по этой песне:
  • Аккорды и текст

Страница создана 12.05.2012
http://primanota.ru/brutality-will-prevail/cursed-chords.htm
Привет, Гость.
Предлагаем пройти революционный курс по гитаре.
Подарок от PrimaNota.Ru, забирай!