PrimaNota.ru - самый крупный в мире бесплатный архив песенных текстов, аккордов, табулатур и нот


Brutal Truth - Pass Some Down - текст песни, бас-таба, видео

Регистрация Запомнить меня
Войти через:  Facebook Google Twitter Vk Yandex Mail.ru

Brutal Truth - Pass Some Down - текст песни, бас-таба, видео

Печатать
Просмотров: 174
Brutal Truth-Pass Some Down

Drop D Tuning

G-------------------------|
D-------------------------|
A-------------------------|
D--0----------------------| x1 (First bass note when drum comes in)

Slide Down...Come In at 5 seconds.

G-------------------------|
D-------------------------|
A----------3-2------------|
D---22-3------3-2-0-------| x16

On 16th repeat of this riff miss out the Open note at the end, and go straight into the 
riff.

G-------------------------|
D-------------------------|
A--0-776655-89------------|
D-------------------------| x4

G-------------------------|
D-------------------------|
A--2-1-0-1-1-2-3-2--------|
D-------------------------| x1

G-------------------------|
D-------------------------|
A--0-776655-89------------|
D-------------------------| x8

G-------------------------|
D-------------------------|
A--2-1-0-1-1-2-3-2--------|
D-------------------------| x1

G-------------------------|
D-------------------------|
A--0-776655-89------------|
D-------------------------| x12

At 1.20 Back to this riff.

G-------------------------|
D-------------------------|
A----------3-2------------|
D---22-3------3-2-0-------| x16


G-------------------------|
D-------------------------|
A--0-776655-89------------|
D-------------------------| x2

G-------------------------|
D-------------------------|
A-------------------------|
D--0-0-1------------------| x1
Добавлено: 29.05.2012
Другие материалы по этой песне:
  • Аккорды и текст

Страница создана 21.04.2012
http://primanota.ru/brutal-truth/pass-some-down-chords.htm
Привет, Гость.
Предлагаем пройти революционный курс по гитаре.
Подарок от PrimaNota.Ru, забирай!