PrimaNota.ru - самый крупный в мире бесплатный архив песенных текстов, аккордов, табулатур и нот


Brutal Truth - Dementia - текст песни, бас-таба, видео

Регистрация Запомнить меня
Войти через:  Facebook Google Twitter Vk Yandex Mail.ru

Brutal Truth - Dementia - текст песни, бас-таба, видео

Печатать
Просмотров: 163
Авторы музыки: Brutal Truth

Dementia-Brutal Truth

Best I could do=) 

G-----------------------|        
D-----------------------|
A---121-----------------| 
D-1------11-22----------| x4         

G-----------------------|      
D-----------------------|     
A----------33-2---------|      
D-11-5-2-3------2-1-----| x6  

G-----------------------|         
D-------------2---------|         
A---------42------------|         
D-66-3-4----------------| x8       

G-----------------------|       
D-----------------------|       
A-----------33-2--------|       
D-11-5-2-3-------2-1----| x8   

G-----------------------|         
D-------------2---------|         
A---------42------------|         
D-66-3-4----------------| x8    

G-----------------------|        
D-----------------------|
A---121-----------------| 
D-1------11-22----------| x8        

G-----------------------|         
D-------------2---------|         
A---------42------------|         
D-66-3-4----------------| x4

G-----------------------|        
D-----------------------|        
A-3645-36457------------|
D-----------------------| x8

G-----------------------|         
D-------------2---------|         
A---------42------------|         
D-66-3-4----------------| x4

G-----------------------|       
D-----------------------|       
A-----------33-2--------|       
D-11-5-2-3-------2-1----| x4

G-----------------------|        
D-----------------------|
A---121-----------------| 
D-1------11-22----------| x4

Добавлено: 16.04.2012
Другие материалы по этой песне:
  • Аккорды и текст

Страница создана 16.04.2012
http://primanota.ru/brutal-truth/dementia-chords.htm
Привет, Гость.
Предлагаем пройти революционный курс по гитаре.
Подарок от PrimaNota.Ru, забирай!