PrimaNota.ru - самый крупный в мире бесплатный архив песенных текстов, аккордов, табулатур и нот


Bruno Mars - When I Was You Man - бас-таба, видео

Регистрация Запомнить меня
Войти через:  Facebook Google Twitter Vk Yandex Mail.ru

Bruno Mars - When I Was You Man - бас-таба, видео

Печатать
Просмотров: 165
-------------------------------------------------------------------------------
                             When I Was Your Man - Bruno Mars
-------------------------------------------------------------------------------
Tabbed by: David Parfett
E-mail: dbparfett@gmail.com
Tuning: E A D G 


Intro  0:00


G|----------------------------------------------------------------------------------------|
D|----------------------------------------------------------------------------------------|
A|-5-(ring)----5-(ring)----3-(ring)----------5-(ring)----5-(ring)----3-(ring)-------------|
E|-------------------------------------------------------------------------------------0--|


Verse  0:13

                                                x2
G|------------------------------------------------|
D|------------------------------------------------|
A|-0--0--3--3--5--5--5--5--------------3--3-------|
E|-------------------------3--3--3--3--------0--0-|


Refrain  0:39


G|----------------------------------------------|
D|----------------------------------------------|
A|-0-(ring)----------------1-(ring)----3-(ring)-|
E|-------------0-(ring)-------------------------|


Chorus  0:53


G|-------------------------------------------------|
D|-------------------------------------------------|
A|-------------3--3--3--3--------------3--3--3--3--|
E|-1--1--3--3--------------1--1--3--3--------------|

G|----------------------------------------------------------------------|
D|----------------------------------------------------------------------|
A|-------------------5--5--------------3-(ring)---------3-(ring)-----0--|
E|-1--1--3--3--5--5--------3--3--1--1-----------------0-----------------|


Verse  1:22

                                                x2
G|------------------------------------------------|
D|------------------------------------------------|
A|-0--0--3--3--5--5--5--5--------------3--3-------|
E|-------------------------3--3--3--3--------0--0-|


Refrain  1:48


G|----------------------------------------------|
D|----------------------------------------------|
A|-0-(ring)----------------1-(ring)----3-(ring)-|
E|-------------0-(ring)-------------------------|


Chorus  2:02


G|-------------------------------------------------|
D|-------------------------------------------------|
A|-------------3--3--3--3--------------3--3--3--3--|
E|-1--1--3--3--------------1--1--3--3--------------|

G|----------------------------------------------------------------------|
D|----------------------------------------------------------------------|
A|-------------------5--5--------------3-(ring)---------3-(ring)-----0--|
E|-1--1--3--3--5--5--------3--3--1--1-----------------0-----------------|


Bridge  2:28


G|-------------------------------------------------|
D|-------------------------------------------------|
A|-------------------------3--3--------0--0--------|
E|-1--1--1--1--3--3--3--3--------3--3--------0--0--|

G|--------------------------------------------|
D|--------------------------------------------|
A|-5--5--5--5--5--5--5--5---3-3-3-3-3-3-3-3-3-|
E|--------------------------------------------|


Chorus  2:54


G|-------------------------------------------------|
D|-------------------------------------------------|
A|-------------3--3--3--3--------------3--3--3--3--|
E|-1--1--3--3--------------1--1--3--3--------------|

G|-------------------------------------------------------------------|
D|-------------------------------------------------------------------|
A|-------------------5--5--------------3--3--5--5---------------3--3-|
E|-1--1--3--3--5--5--------1--1--1--1---------------1--1--1--1-------|



| /  slide up
| \  slide down
| h  hammer-on
| p  pull-off
| ~  vibrato
| +  harmonic
| x  Mute note
===============================================================================
Добавлено: 08.09.2013
Другие материалы по этой песне:
  • Аккорды и текст

Страница создана 08.09.2013
http://primanota.ru/bruno-mars/when-i-was-you-man-chords.htm
Привет, Гость.
Предлагаем пройти революционный курс по гитаре.
Подарок от PrimaNota.Ru, забирай!