PrimaNota.ru - самый крупный в мире бесплатный архив песенных текстов, аккордов, табулатур и нот


Brujeria - Colas De Rata - аккорды и текст, таба, видео

Регистрация Запомнить меня
Войти через:  Facebook Google Twitter Vk Yandex Mail.ru

Brujeria - Colas De Rata - аккорды и текст, таба, видео

Печатать
Просмотров: 158
Авторы музыки: Greñudo, Fantasma, Güero sin fe, Juan Brujo, Hongo, Pinche Peach, Jr. Hozicon, Asesino

Colas De Rata
Brujeria
                             SLAMMED - 11 - BRUJERIA - COLAS DE RATA
            Tabbed by blinders
            Want more? http://perso.club-internet.fr/blinders/
            HE! It's all my work! Don't touch


DROP D

INTRO (played two times)
|---2---5-7-8---|        
|---2---5-7-8---| 3x    
|---2---5-7-8---|      

then
|-0---0---333-|
|-0---0---333-|
|-0---0---333-|


RIFF1
|-22---2-5-7-8---|       
|-22---2-5-7-8---| 3x
|-22---2-5-7-8---|  
                   
then
|-----------|
|-0000-3333-|
|-0000-3333-|
pm---------|

RIFF2
|-22---2-5-7-8---|        
|-22---2-5-7-8---| 3x
|-22---2-5-7-8---|  

then
|-22---2-8-5-8-|
|-22---2-8-5-8-|
|-22---2-8-5-8-|



     
Добавлено: 28.11.2013
Другие материалы по этой песне:

Страница создана 26.04.2012
http://primanota.ru/brujeria/colas-de-rata-chords.htm
Привет, Гость.
Предлагаем пройти революционный курс по гитаре.
Подарок от PrimaNota.Ru, забирай!