PrimaNota.ru - самый крупный в мире бесплатный архив песенных текстов, аккордов, табулатур и нот


Brudadoug - Open Door Towards The Sun - таба

Регистрация Запомнить меня
Войти через:  Facebook Google Twitter Vk Yandex Mail.ru

Brudadoug - Open Door Towards The Sun - таба

Печатать
Просмотров: 84
song: open door (towards the sun)
band: bruda'doug
tabbed by norman heinl

intro chords are: Dm C Bb C

VERSE 1
Dm      C                           Bb   C
an open door and a place for her to go
Dm                C                        Bb    C
once when she was lost she thought she was alone
Am                     Bb          Am  Bb-C
and she don't wanna go back there- no

****chorus****
Dm              C                     Bb   
Where could she walk, where would she run?
         C                      [Dm]
past the clouds and towards the sun [repeat]

VERSE 2
Dm      C                           Bb   C
a windy vent and a place for him to hide
Dm      C                          Bb        C
only to let out the things that he felt....inside

****chorus[using the word'he' instead of 'she']
Am                    Bb          Am  Bb-C
and he don't wanna go back there, no....oh

breakdown****
 Dm        C          Bb        C
e[-5--5--5-|-3--3--3-|-1--1--1-|-3--3--3-]
B[--6--6--6|--5--5--5|--3--3--3|--5--5--5]
G[---7--7--|---5--5--|---3--3--|---5--5--]
D[---------|---------|---------|---------]
A[---------|---------|---------|---------]
E[---------|---------|---------|---------]

  Dm           C             Bb           C
e[-5-5-5--5---|-3-3-3--3---|-1-1-1--1--1-|-3-3-3--3--3-]
B[-6-6--6--6--|-3-3--5--5--|-1-1--3--3--3|-3-3--5--5--5]
G[-7-7---7--7-|-5-5---5--5-|-3-3---3--3--|-5-5---5--5--]
D[-7-7--------|-5-5--------|-3-3---------|-5-5---------]
A[-5-5--------|-3-3--------|-1-1---------|-3-3---------]
E[-X-X--------|-X-X--------|-X-X---------|-X-X---------]

BRIDGE****
Dm     C             Bb
In the night, in the day
             C                    Dm
a thoughtful smile will go a long way
         C           Bb        C   [Dm C Bb C] 2X
Stay the same, in my mi I I I I IND!!!!

****CHORUS(sing 'we' instead of 'he' or 'she'
and thats all folks...make sure you have a distortion and wah pedal!!!!
Добавлено: 26.10.2013
Другие материалы по этой песне:
  • Аккорды и текст

Страница создана 26.10.2013
http://primanota.ru/brudadoug/open-door-towards-the-sun-chords.htm
Привет, Гость.
Предлагаем пройти революционный курс по гитаре.
Подарок от PrimaNota.Ru, забирай!