PrimaNota.ru - самый крупный в мире бесплатный архив песенных текстов, аккордов, табулатур и нот


Bruce Springsteen - Waiting On The End Of The World - аккорды и текст, видео

Регистрация Запомнить меня
Войти через:  Facebook Google Twitter Vk Yandex Mail.ru

Bruce Springsteen - Waiting On The End Of The World - аккорды и текст, видео

Печатать
Просмотров: 38
Waiting On The End Of The World
Bruce Springsteen
------------------------------------------------------------------------------
                  Waiting On The End Of The World-Bruce Springsteen
-------------------------------------------------------------------------------
Tabbed by:Nick V.
E-mail:BlindTerry333@gmail.com

Recorded in 1995 with the ESB but never released.

Tuning:EADGBE


[Keyboard Intro]

  F   Dm/F  Fadd2 Gsus
e|-x----x----3----0-----------------------------------------------------|
B|-1----3----1----3-----------------------------------------------------|
G|-2----2----2----0-----------------------------------------------------|
D|-3----3----3----0-----------------------------------------------------|
A|-x----x----x----0-----------------------------------------------------|
E|-x----x----x----3-----------------------------------------------------|


[Guitar Intro] x3

          F    F     C     Gsus        
e|---------------------------------------------------------------------|
B|-------1-----1------1------3-----------------------------------------|
G|-----2-----2------0------0-------------------------------------------|
D|---3-----3------2----------------------------------------------------|
A|---------------------------------------------------------------------|
E|----------------------3----------------------------------------------|


Gsus                             Am
For one deadly love like a disease 
                               Gsus
I came to you crawling on my knees
Am                       
Your eyes filled with rain 
Gsus                                     F
I can feel poison running through my veins

                 C                                       
I'm waitin', I'm waitin', I'm waitin' 
Gsus                            F
Waitin' on the end of the world
                       C   Gsus  Gsus
I'm waitin', I'm waitin'
 

          F    F     C      Gsus     C    G  G
e|-----------------------------------0----x--x-----------------------|
B|-------1-----1------1-------3------1----3--3-----------------------|
G|-----2-----2------0-------0--------0----0--0-----------------------|
D|---3-----3------2------------------2----0--0-----------------------|
A|-----------------------------------3----0--0-----------------------|
E|-----------------------3-----------x----3--3-----------------------|

Gsus                                    
For one deadly kiss what would we give
Am                                   
Your skin trembling neath my fingertips
Gsus                      
All I know is someday 
    Am                        F
For love, baby, everybody pays

                         C                                       
I'm waitin', I'm waitin', I'm waitin' 
Gsus                           F
Waitin' on the end of the world
                       C   Gsus  Gsus
I'm waitin', I'm waitin'


Bb                               F
We hide from truth in our hearts
                  C
Like one look and everything will fall apart
Bb                           Am
Here in your arms, a soft decay 
                            Gsus
I can feel myself wasting away


Gsus  Am  Gsus  Am 

F  C   Gsus  F   C  

Gsus                          
Will you meet me in the hall
Am                                    
Where light scatters and darkness falls
Gsus                              
Here in this feast of friends
Am                    F
To break and begin again

                     C                                       
I'm waitin',I'm waitin', I'm waitin' 
Gsus                          F
Waitin' on the end of the world
                       C   Gsus Gsus
I'm waitin', I'm waitin'
                                    

F  F  C  Gsus (x5)

C  Gsus  Gsus


Questions, comments, insults...BlindTerry333
Добавлено: 08.11.2015
Другие материалы по этой песне:
  • Аккорды и текст

Страница создана 08.11.2015
http://primanota.ru/bruce-springsteen/waiting-on-end-of-world-chords.htm
Привет, Гость.
Предлагаем пройти революционный курс по гитаре.
Подарок от PrimaNota.Ru, забирай!