PrimaNota.ru - самый крупный в мире бесплатный архив песенных текстов, аккордов, табулатур и нот


Bruce Springsteen - Up On The Roof - аккорды и текст, видео

Регистрация Запомнить меня
Войти через:  Facebook Google Twitter Vk Yandex Mail.ru

Bruce Springsteen - Up On The Roof - аккорды и текст, видео

Печатать
Просмотров: 130
Up On The Roof
Bruce Springsteen
-------------------------------------------------------------------------------
                             Up On The Roof-Bruce Springsteen
-------------------------------------------------------------------------------
Tabbed by:Nick V.
E-mail:BlindTerry333@gmail.com

Tuning:Standard

The Drifters cover from the 8/16/75 show of the amazing Bottom Line stretch of the BTR tour.

F#  D#m  B  C#   or   F#  D#m  B   C# (for Steven's lead part)
e|-2--6--x--x---------x---11---x---x--------------------------------------------------|
B|-2--7--4--6---------11--11---12--9--------------------------------------------------|
G|-3--8--4--6---------11--11---11--10-------------------------------------------------|
D|-4--8--4--6---------11--13---13--11-------------------------------------------------|
A|-4--6--2--4---------x---11---x---x--------------------------------------------------|
E|-2--x--x--x---------x---x----x---x--------------------------------------------------|

F#                         D#m
 When this old world starts getting me down
     B                C#                      F#
And people are just too much for me to face
                             D#m
I climb way up to the top of the stairs
     B                C#                    F#
And all my cares just drift right into space

B         
On the roof, it's peaceful as can be
     F#                 D#m             B     C#
And there the world below don't bother me

F#                         D#m
When I come home feelin' tired and beat
     B                C#                      F#
I go up where the air is fresh and sweet (up on the roof)
                           D#m
I get away from the hustling crowd
   B                C#                      F#
And all that rat-race noise down in the street (up on the roof)

B                                 
On the roof, the only place I know
     F#             D#m                B   C#
Where you just have to wish to make it so


 F#                      D#m
Right smack dab in the middle of town
               B             C#                           F#
I've found a paradise that's trouble proof
                         D#m
And if this world starts getting you down
         B               C#
There's room enough for two
           F#       D#m
Up on the roof (up on the roof)
           B            C#
Up on the roof (up on the roof)
              B         C#
Oh, come on, baby (up on the roof)
              B   C#
Oh, come on, honey (up on the roof)


  

Questions, comments, insults...BlindTerry333

Добавлено: 08.04.2015
Другие материалы по этой песне:
  • Аккорды и текст

Страница создана 08.04.2015
http://primanota.ru/bruce-springsteen/up-on-roof-chords.htm
Привет, Гость.
Предлагаем пройти революционный курс по гитаре.
Подарок от PrimaNota.Ru, забирай!