PrimaNota.ru - самый крупный в мире бесплатный архив песенных текстов, аккордов, табулатур и нот


Bruce Springsteen - Tokyo (and The Band Played) - текст песни, таба, видео

Регистрация Запомнить меня
Войти через:  Facebook Google Twitter Vk Yandex Mail.ru

Bruce Springsteen - Tokyo (and The Band Played) - текст песни, таба, видео

Печатать
Просмотров: 113
-------------------------------------------------------------------------------
                            Tokyo(And The Band Played)-Bruce Springsteen
-------------------------------------------------------------------------------
Tabbed by:Nick V.
E-mail:BlindTerry333@gmail.com

From the April 1973 "Main Point" radio broadcast.
https://www.youtube.com/watch?v=6OcThwiZ198

Tuning:EADGBE

   A   D  F#m  Bm  E
e|-x----x---9--7---0---------------------------------------------------------|
B|-8---10--10--7---9---------------------------------------------------------|
G|-9---11--11--7---9---------------------------------------------------------|
D|-10--12--11--9---9---------------------------------------------------------|
A|-0---x---9---9---x---------------------------------------------------------|
E|-x---x---x---7---x---------------------------------------------------------|


  (Riff #1)              (Riff #2)
e|-9-7----------------9-7----------------9-7-------------9-7-----------------|
B|-----10-7--2/3----------10-7--5/7---------10-7--2/3--------10-7--5/7-------|
G|---------------------------------------------------------------------------|
D|---------------------------------------------------------------------------|
A|---------------------------------------------------------------------------|
E|---------------------------------------------------------------------------|

   (Riff #3)
e|-10-9------------------9-7------------------10-9---------------------------|
B|------12-10----------------10-7--2/3-------------12-10---------------------|
G|------------9h11p9-------------------------------------9h11p9--------------|
D|---------------------------------------------------------------------------|
A|---------------------------------------------------------------------------|
E|---------------------------------------------------------------------------|


     (Riff #4)                     (Riff #5)     
e|-9-7--------5/7--5--------9-7--------5/7---5-----5--7----------------------|
B|-----10-7---5/7--5------------10-7---5/7-----5---5--7----------------------|
G|---------------------------------------------------------------------------|
D|---------------------------------------------------------------------------|
A|---------------------------------------------------------------------------|
E|---------------------------------------------------------------------------|


I was sitting outside one night, and...

A                        D                       A
The moon hung like a shadow on a rung over Shanghai
F#m                                                 E
Them soldier boys were returning home screaming "Banzai"
A                                     
And the kids are still playing their game
A                                        F#m
Getting hustled and rustled out in the rain
           Bm              A           E  
As I sat inside listening to the broadcast
A                        E                       A
Oh, save my soul, sweet rock and roll, 'cause I'm sinkin' fast

And then the band played

e|-9-7----------------9-7----------------9-7-------------9-7-----------------|
B|------10-7---2/3--------10-7---5/7---------10-7--2/3-------10-7---5/7------|
G|---------------------------------------------------------------------------|
D|---------------------------------------------------------------------------|
A|---------------------------------------------------------------------------|
E|---------------------------------------------------------------------------| 
Out of nowhere and it was alright

                               
e|-9-7--------5/7--5-----9-7--------5/7---5-----5--7-------------------------|
B|-----10-7---5/7--5---------10-7---5/7-----5---5--7-------------------------|
G|---------------------------------------------------------------------------|
D|---------------------------------------------------------------------------|
A|---------------------------------------------------------------------------|
E|---------------------------------------------------------------------------|

A                           D                                A
Now the legendary chaplain of the fighting 51st was getting ready to go
F#m                                                   E
I said, "Padre, do you know a cheap virgin who likes to tango?"
A                                                              F#m
He said, "You can try Linda Lee", around the corner and across the sea
        Bm          A            E
Word is out, word is out she's fast
A                      E                     A
Well, blow me down now, Linda, 'cause I'm sinkin' fast
 

F#m                                                       E
Yes, and them cats are sure getting fat down in the train yard
Bm                                                  A
And the sandman brings them dreams to ship out in the boxcars
Bm                                      F#m
The union says, "Hold." Break out the dice, break out the gold
D                   E
It's lunchtime at last

      A                                                  E
And old big Mama said, "George Raft's tonight on the late show"
D                                              E
She sits straddling a kitchen chair, really gung-ho
F#m                                   Bm
She shivers with chills, wet with slot car thrills
A                        E
Hypnotically lost in the glass
            G                    E
And we all sigh with the sunrise
E
As we watch the credits pass

A                        D                       A
And then the morning cloak fell down like a hoax over Sleepy Town
F#m                                            E
And garbage truck vigilantes out making the last rounds
Bm                                                  F#m
The inheritor he sipped his beer and poked cute fun of the queer
D                          E
And threatened to kick his ass

One, two, three, ow!
And the band played out on the radio, it was alright

e|-9-7----------------9-7----------------9-7-------------9-7-----------------|
B|------10-7---2/3--------10-7---5/7---------10-7--2/3-------10-7---5/7------|
G|---------------------------------------------------------------------------|
D|---------------------------------------------------------------------------|
A|---------------------------------------------------------------------------|
E|---------------------------------------------------------------------------| 
It's on the radio and he listened to the bass man

(Clarence's Bass Vocal)
                                 A                E
And the boys in the band sang (Whoa whoa whoa wo-ho)
 A                             F#m
That's right (Whoa whoa whoa wo-ho)
A                              E
I'm so excited (Whoa whoa whoa wo-ho)
A                          F#m
Everybody (Whoa whoa whoa wo-ho)
A                           E
And the band played (Whoa whoa whoa wo-ho)
A                              F#m
Everybody (Whoa whoa whoa wo-whoa)

Questions, comments, insults...BlindTerry333
Добавлено: 08.11.2015
Другие материалы по этой песне:
  • Аккорды и текст

Страница создана 28.06.2012
http://primanota.ru/bruce-springsteen/tokyo-and-the-band-played-chords.htm
Привет, Гость.
Предлагаем пройти революционный курс по гитаре.
Подарок от PrimaNota.Ru, забирай!