PrimaNota.ru - самый крупный в мире бесплатный архив песенных текстов, аккордов, табулатур и нот


Bruce Springsteen - Sugarland - аккорды и текст, видео

Регистрация Запомнить меня
Войти через:  Facebook Google Twitter Vk Yandex Mail.ru

Bruce Springsteen - Sugarland - аккорды и текст, видео

Печатать
Просмотров: 68
Sugarland
Bruce Springsteen
SUGARLAND 

Two, three, four

G                   Em
GRAINS IN THE FIELD COVERED WITH TARP
G                    Em
CAN'T GET A PRICE TO SEE MY WAY CLEAR
    G                   Em
I'M SITTING DOWN AT THE SUGARLAND BAR
    G                     C          G
YOU MIGHT AS WELL BURY MY BODY RIGHT HERE

G                    Em
TRACTOR AND COMBINES OUT IN THE COLD
G                         Em
SHEDS PILED HIGH WITH THE WHEAT WE AIN'T SOLD
G                 Em
SILOS FILLED WITH LAST YEARS CROP
   G                                C         G
IF SOMETHING DON'T BREAK, YEAH WERE ALL GONNA DROP

     G         Em     C,     G         Em        C
e|----------------------------------------------------|
B|----------------------------------------------------|
G|--9-7-5---5-----------5---9-7-5---5-----------5-----|
D|--------7---7-5---5-7-----------7---7-5---5-7-------|
A|----------------7-----------------------7-----------|
E|----------------------------------------------------|

    G         Em     C,     G         Em        C
e|----------------------------------------------------|
B|----------------------------------------------------|
G|--9-7-5---5-----------5---9-7-5---5-----------5-----|
D|--------7---7-5---5-7-----------7---7-5---5-7-------|
A|----------------7-----------------------7-----------|
E|----------------------------------------------------|

   G                        Em
MY WIFES GOT ANOTHER COMING IN JULY
           G                                Em
SHE'S JUST LAYING UP IN BED ALL SHE DOES IS CRY, CRY, CRY
G                     Em
TOMMY, OH, TOMMY, I'M SO ALONE
G                     C              G
TOMMY, OH, TOMMY, OH, WON'T YOU STAY HOME

G                           Em
PA DON'T SAY NOTHING EXCEPT WHEN IT RAINS
            G                                 Em
SITS BY THE WINDOWS LISTENING TO THE SOUND OF PASSING TRAINS
        G                            Em
ROARING OUT OF THE NIGHT CARRYING AN EMPTY LOAD
G                                          C          G
WE GOT A WHOLE LOT OF GRAIN THAT AIN'T GOT NOWHERE TO GO

    G         Em     C,     G         Em        C
e|----------------------------------------------------|
B|----------------------------------------------------|
G|--9-7-5---5-----------5---9-7-5---5-----------5-----|
D|--------7---7-5---5-7-----------7---7-5---5-7-------|
A|----------------7-----------------------7-----------|
E|----------------------------------------------------|

    G         Em     C,     G         Em        C
e|----------------------------------------------------|
B|----------------------------------------------------|
G|--9-7-5---5-----------5---9-7-5---5-----------5-----|
D|--------7---7-5---5-7-----------7---7-5---5-7-------|
A|----------------7-----------------------7-----------|
E|----------------------------------------------------|

G                          Em
WELL, IF THEM PRICES DON'T GET NO HIGHER
               G                             Em
I'LL FILL THIS DUSTER WITH GAS AND SET THESE FIELDS ON FIRE
    G                         Em
SIT UP ON THE RIDGE WHERE THE BLUE BIRDS FLY
              G
AND WATCH THE FLAMES RISE UP AGAINST THE SUGARLAND SKY

    G         Em     C,     G         Em        C
e|----------------------------------------------------|
B|----------------------------------------------------|
G|--9-7-5---5-----------5---9-7-5---5-----------5-----|
D|--------7---7-5---5-7-----------7---7-5---5-7-------|
A|----------------7-----------------------7-----------|
E|----------------------------------------------------|

    G         Em     C,     G         Em        C
e|----------------------------------------------------|
B|----------------------------------------------------|
G|--9-7-5---5-----------5---9-7-5---5-----------5-----|
D|--------7---7-5---5-7-----------7---7-5---5-7-------|
A|----------------7-----------------------7-----------|
E|----------------------------------------------------|
Добавлено: 25.10.2015
Другие материалы по этой песне:
  • Аккорды и текст

Страница создана 26.05.2012
http://primanota.ru/bruce-springsteen/sugarland-chords.htm
Привет, Гость.
Предлагаем пройти революционный курс по гитаре.
Подарок от PrimaNota.Ru, забирай!