PrimaNota.ru - самый крупный в мире бесплатный архив песенных текстов, аккордов, табулатур и нот


Bruce Springsteen - Mary Mary - аккорды и текст, видео

Регистрация Запомнить меня
Войти через:  Facebook Google Twitter Vk Yandex Mail.ru

Bruce Springsteen - Mary Mary - аккорды и текст, видео

Печатать
Просмотров: 83
Mary Mary
Bruce Springsteen
-------------------------------------------------------------------------------
                             Mary Mary-Bruce Springsteen
-------------------------------------------------------------------------------
Tabbed by:Nick V.
E-mail:BlindTerry333@gmail.com

From the "American Beauty" EP.

Tuning:EADGBE

Capo II


Intro: 

(Fig #1]  x2


  G    Gadd2 G   Gsus4   Csus/G   G
e|--------------------------------------------------------------------------|
B|-0-0---0---0----1-1----1----1---0-----------------------------------------|
G|-0-0---2---0----0-0----0h2--2---0-----------------------------------------|
D|-0-0---0---0----0-0----0----0---0-----------------------------------------|
A|-x-x---x---x----x-x----x----0---x-----------------------------------------|
E|-3-3---3---3----3-3----3----3---3-----------------------------------------|

                                              [Fig #1]
I heard they seen you yesterday in Charlestown
                                           [Fig #1]
I heard about that story going round round
               C                              G
All I got's a book of love with pages worn clean through
    C                            G
A circle of gold and one bleeding tattoo
                                  [Fig #1]
Mary,Mary, where have you gone to
                                   [Fig #1]
Mary, Mary, where have you gone to


                                                      [Fig #1]
This town's a secret shared and shattered in a sad song
                                                   [Fig #1]
Just torn and tattered pieces of a love gone wrong
         C                         G
Hearts of stone and eyes gone deep blue
         C                      G
Lonely houses filled two by two
                                 [Fig #1]
Mary,Mary, where have you gone to
                                 [Fig #1]
Mary, Mary, where have you gone to


Bridge: 

 Am Em7  Am F 

 Am Em7  Am  F  G

                                   [Fig #1]
Summer storm blew in soft and cool
                                         [Fig #1]
Onto slinky town streets where love ruled
                 C                                      G
Now there's just a misty sidewalk with the rain drifting through
C                                 G
A lipstick case and one lonely red shoe
                               
                                 [Fig #1]
Mary,Mary, where have you gone to

                                             [Fig #1]
I heard they seen you yesterday in Charlestown


 
 G  Gadd2 Gsus4 Csus/G  C   Am   F   Em7          
e|-----------------------0------------0-----------------------------------|
B|-0---0----1-----1------1----1---1---3-----------------------------------|
G|-0---2----0-----2------0----2---2---0-----------------------------------|
D|-0---0----0-----0------2----2---3---2-----------------------------------|
A|-x---x----x-----x------3----0---3---2-----------------------------------|
E|-3---3----3-----3---------------1---0-----------------------------------|



Questions, comments, insults...BlindTerry333
Добавлено: 22.10.2015
Другие материалы по этой песне:
  • Аккорды и текст

Страница создана 21.07.2014
http://primanota.ru/bruce-springsteen/mary-mary-chords.htm
Привет, Гость.
Предлагаем пройти революционный курс по гитаре.
Подарок от PrimaNota.Ru, забирай!