PrimaNota.ru - самый крупный в мире бесплатный архив песенных текстов, аккордов, табулатур и нот


Bruce Springsteen - Jungleland - текст песни, таба, видео

Регистрация Запомнить меня
Войти через:  Facebook Google Twitter Vk Yandex Mail.ru

Bruce Springsteen - Jungleland - текст песни, таба, видео

Печатать
Просмотров: 296
e|-------------------------|-13p12------------------------------|
B|---------13--15--13--15b-|--------13-------------10/13--13----|
G|--12/14------------------|-----------12---10--9------------14-|
D|-------------------------|------------------------------------|
A|-------------------------|------------------------------------|
E|-------------------------|------------------------------------|

|----------------|------------------------------------|
|----------13-13-|--b15r--13----17b---17-17---15---13-|
|-12--14---------|------------------------------------|
|----------------|------------------------------------|
|----------------|------------------------------------|
|----------------|------------------------------------|

|--------------17----15-15----13------|---------------|
|--b15r--13----18----17-17----15---13-|---------------|
|-------------------------------------|-------%-------|
|-------------------------------------|---------------|
|-------------------------------------|---------------|
|-------------------------------------|---------------|

|----------------20---|
|--b15r--13------21b--|
|---------------------|
|---------------------|
|---------------------|
|---------------------|


b-bend
r-release bend
p-pull off
%-repeat preveious bar
Добавлено: 25.06.2012
Другие материалы по этой песне:

Страница создана 18.04.2012
http://primanota.ru/bruce-springsteen/jungleland-chords.htm
Привет, Гость.
Предлагаем пройти революционный курс по гитаре.
Подарок от PrimaNota.Ru, забирай!