PrimaNota.ru - самый крупный в мире бесплатный архив песенных текстов, аккордов, табулатур и нот


Bruce Springsteen - Jungleland - аккорды и текст, таба, видео

Регистрация Запомнить меня
Войти через:  Facebook Google Twitter Vk Yandex Mail.ru

Bruce Springsteen - Jungleland - аккорды и текст, таба, видео

Печатать
Просмотров: 383
Новый альбом группы 'Черный Кузнец' по культовому сериалу 'Сверхъестественное'!
Jungleland
Bruce Springsteen
C     Em7  F       Am    Dm         F     G    Am           Em7
e|--12--10--|----p--------|------15--|--17--19--|--20--17------20--22--|
B|----------|--13----|
E|------------------|--------------------------|---------------------------|

{or}
e|--------------12--|--------------------------|--------17----------------|
B|--------12-13-----|--17------18-17-17-15-----|--17----20^^-20-20-18-17--|
G|--12-14-----------|-----17---------------17--|-----17-------------------|
D|------------------|--------------------------|--------------------------|
A|------------------|--------------------------|--->---|
E|------------------|--------------------------|--------------------------|

e|----------17-------------|
B|--17------20b^b^b^b^-----|
G|-----17------------------|
D|-------------------------|
A|-------------------------|
E|-------------------------|
Добавлено: 11.04.2018
Другие материалы по этой песне:

Страница создана 18.04.2012
http://primanota.ru/bruce-springsteen/jungleland-chords.htm
Привет, Гость.
Предлагаем пройти революционный курс по гитаре.
Подарок от PrimaNota.Ru, забирай!