PrimaNota.ru - самый крупный в мире бесплатный архив песенных текстов, аккордов, табулатур и нот


Bruce Springsteen - Gotta Get That Feeling - аккорды и текст, видео

Регистрация Запомнить меня
Войти через:  Facebook Google Twitter Vk Yandex Mail.ru

Bruce Springsteen - Gotta Get That Feeling - аккорды и текст, видео

Печатать
Просмотров: 159
Gotta Get That Feeling
Bruce Springsteen
-------------------------------------------------------------------------------
                             Gotta Get That Feeling-Bruce Springsteen
-------------------------------------------------------------------------------
Tabbed by:Nick V.
E-mail:BlindTerry333@gmail.com

From "The Promise".

Tuning:EADGBE

   E  Asus Bsus C#m F#m G  C  D  Em
e|-0--0----0----4---2---3--0--2--0------------------------------------|
B|-0--0----0----5---2---3--1--3--0------------------------------------|
G|-1--2----4----6---2---0--0--2--0------------------------------------|
D|-2--2----4----6---4---0--2--0--2------------------------------------|
A|-2--0----2----4---4---0--3--0--2------------------------------------|
E|-0--x----x----x---2---3--x--x--0------------------------------------|
           

Intro:
 
   B/F#            Esus4add2     Eadd4 [x4]
e|-2---2---2-------0--0--0--0-----0----------------------------------|
B|-0---0---0-------7--7--7--7-----9----------------------------------|
G|-4---4---4-------9--9--9--9-----9----------------------------------|
D|-4---4---4-------9--9--9--9-----9----------------------------------|
A|-x---x---x-------0--0--0--0-----0----------------------------------|
E|-x---x---x-------0--0--0--0-----0----------------------------------|

     E               Asus              Bsus
Yeah girl, won't you come on out tonight
     E                Asus               Bsus
Hey girl, where the stars are shining bright
C#m                     
Gotta get that feeling (gotta get that feeling)
       Asus
Yeah, we gotta get that feeling (gotta get that feeling)
      Bsus   F#m
Oh, back again
      Bsus     Asus
Yeah back again

  E                   Asus               Bsus 
Tonight, you know there's something in the air
    E                   Asus               Bsus
Tonight, we ain't got money but we don't care
 C#m
We just gotta get that feeling (gotta get that feeling)
       Asus
Yeah, I wanna get that feeling (gotta get that feeling)
            Bsus              
Before the night is through
   F#m                        E 
I want you to get that feeling too


Bridge:

G                                         D
Hold me in your arms, the night will take care of us
F                                     Bsus
Come the rain or the storm love will be there with us


Sax Solo:

E Asus Bsus  E Asus Bsus
  
C#m  F#m  C#m  F#m  

Asus Bsus  C  D

e|---7-------------7--9-9-7--9--7---------7-------------7--9-9-7--9-7--------|
B|-9---9-9---7--9------------------7--9-----9-9---7--9-----------------------|
G|---------------------------------------------------------------------------|
D|---------------------------------------------------------------------------|
A|---------------------------------------------------------------------------|
E|---------------------------------------------------------------------------|

e|-----9--12v---9/-----------------------------------------------------------|
B|-12------------------------------------------------------------------------|
G|---------------------------------------------------------------------------|
D|---------------------------------------------------------------------------|
A|---------------------------------------------------------------------------|
E|---------------------------------------------------------------------------|

G                         C                   D
Tonight, you know there's something in the air
G                         C                 D
Tonight, we ain't got money but we don't care

     Em               
Just gotta get that feeling (gotta get that feeling)
   C
Yeah, we gotta get that feeling (gotta get that feeling)
   D            G        D        G
Whoa-oh back again Yeah back again

     Em               
Just gotta get that feeling (gotta get that feeling)
   C
Yeah, we gotta get that feeling (gotta get that feeling)
   D            G        D        G
Whoa-oh back again Yeah back again

     Em 
Gotta get that feeling (gotta get that feeling)
      C
Now,I wanna get that feeling (gotta get that feeling)
    Em
Gotta get that feeling (gotta get that feeling)
    C
Now, I wanna get that feeling (gotta get that feeling)
  D          G        D    G
Doo doo doo doo doo doo


Questions, comments, insults...BlindTerry333


Добавлено: 20.06.2015
Другие материалы по этой песне:
  • Аккорды и текст

Страница создана 20.06.2015
http://primanota.ru/bruce-springsteen/gotta-get-that-feeling-chords.htm
Привет, Гость.
Предлагаем пройти революционный курс по гитаре.
Подарок от PrimaNota.Ru, забирай!