PrimaNota.ru - самый крупный в мире бесплатный архив песенных текстов, аккордов, табулатур и нот


Bruce Robison - Rayne Louisiana - таба, видео

Регистрация Запомнить меня
Войти через:  Facebook Google Twitter Vk Yandex Mail.ru

Bruce Robison - Rayne Louisiana - таба, видео

Печатать
Просмотров: 113
Уроки эстрадного вокала в Санкт-Петербурге
"Rayne, Louisiana" by Bruce Robison, from the album "Wrapped"

Submitted by Trey Graves,
treygraves
a t
scientist.com

For what it is worth, the guitars may use an alternate tuning.
I am assuming standard tuning.

            1 2 3 4 5 6
            -----------
E          0 2 2 1 0 0
F#/E       2 4 4 2 0 0 (use thumb on 1st string)
G/E        3 5 5 3 0 0 (use thumb on 1st string)
G#/E       4 6 6 4 0 0 (use thumb on 1st string)
A/E        5 7 7 6 0 0 (use thumb on 1st string)
D7         x 3 4 2 1 0

The F#/E might also be a minor 7th:
F#m7/E     2 4 2 2 0 0 (use thumb on 1st string)

First half of intro:

|-------------------0-----0-----0-0-0-0-0-----0---0---
|-------------------0-----0-----0-0-0-0-7s8s7-5---5---
|---------2-2-------1-----1-----2-3-2-1---------6-----
|-2-2-2---4p2-------------2-----2-5-4-2---------------
|-2-4---------5-2---------2-----4-5-4-2---------------
|-----------------5---0---0-2-2-2-3-2-0---------------

E       F#/E
G long Rayne, Louisiana
G/E       F#/E  E
Never see me no more

Repeat 3 more times

F#/E                G#/E
How many days can I ....
          A/E
 From the levee...
F#/E                          G#/E
Wake up in the morning in the ....
         A/E                 D7
Only the leavin' is left in gone

I like to solo using the following scale.
The notes in parentheses are usually hit by bending the string.
The scale can be played in other octaves as well.

|------------------------7-9-10--
|------8-(9)-10-(11)-------------
|-7-9----------------------------
|--------------------------------
|--------------------------------
|--------------------------------

This transcription is all my own work and interpretation - Trey
     
Добавлено: 31.07.2013
Другие материалы по этой песне:
  • Аккорды и текст

Страница создана 31.07.2013
http://primanota.ru/bruce-robison/rayne-louisiana-chords.htm
Привет, Гость.
Предлагаем пройти революционный курс по гитаре.
Подарок от PrimaNota.Ru, забирай!