PrimaNota.ru - самый крупный в мире бесплатный архив песенных текстов, аккордов, табулатур и нот


Bruce Dickinson - Welcome To The Pit - текст песни, таба, видео

Регистрация Запомнить меня
Войти через:  Facebook Google Twitter Vk Yandex Mail.ru

Bruce Dickinson - Welcome To The Pit - текст песни, таба, видео

Печатать
Просмотров: 171
intro

e------------------------------------|
b------------------------------------|
g--7----3-------------7----3---------|
d--7----3-------------7----5---------|
a--5----5----9--------5---(5)---9----|
d------------9------------------9----|


main riff
e------------------------------------|
b------------------------------------|
g------------------------------------|
d------------------------------------|
a--0---0-0-2/3--0--0--0--6\5-6\5-----|
d--0---0-0-2/3--0--0--0--6\5-6\5-----|
       * *
e------------------------------------|
b------------------------------------|
g------------------------------------|
d------------------------------------|
a--0---0-0-2/3--0--0--0--0-0-6-------|
d--0---0-0-2/3--0--0--0--0-0-6-------|
       * *               * *
e---------------|
b---------------|
g---------------|
d---------------|
a--5-3----------|
d------6-5-3-5--|

chorus 1
e-------------------------------------------------|
b-------------------------------------------------|
g-------------------------------------------------|
d-------------------------------------------------|
a--0--0----0-0-0/3--3--3-3-3/5--5--5-5--5--5--5-5-|
d--0--0----0-0-0/3--3--3-3-3/5--5--5-5--5--5--5-5-|

bridge before solo
e----------------0---------------------0-----|
b------------------0---------------------0---|
g------------------------------------------3-|
d--------------------------------------------|
a--------------------------------------------|
d--2-4-4-2-4-2-4---------2-4-4-2-4-5-4-------|

solo rhythm

e-----------------------------------------------------------------------------|
b-----------------------------------------------------------------------------|
g-----------------------------------------------------------------------------|
d-----------------------------------------------------------------------------|
a-9--9--9--9-9--9--9---3--3-3--3--3--3-3---7--7-7--7--7--7---1--1-1--1--1--1--|
d-9--9--9--9-9--9--9---3--3-3--3--3--3-3---7--7-7--7--7--7---1--1-1--1--1--1--|
           * *     *      * *     *           * *     *         * *     *
bridge
e------------------------------------|
b------------------------------------|
g------------------------------------|
d--0---0-0-2/3--0--0--0--6\5-6\5-----|
a------------------------------------|
d------------------------------------|

e------------------------------------|
b------------------------------------|
g------------------------------------|
d--0---0-0-2/3--0--0--0--0-0-6-------|
a------------------------------------|
d------------------------------------|

bridge bfore main riff
e--------------|
b--------------|
g--------------|
d--------------|
a-5x--4x--3x---|
d-5x--4x--3x---|
Добавлено: 29.02.2012
Другие материалы по этой песне:
  • Аккорды и текст

Страница создана 29.02.2012
http://primanota.ru/bruce-dickinson/welcome-to-the-pit-chords.htm
Привет, Гость.
Предлагаем пройти революционный курс по гитаре.
Подарок от PrimaNota.Ru, забирай!