PrimaNota.ru - самый крупный в мире бесплатный архив песенных текстов, аккордов, табулатур и нот


Bruce Dickinson - Soul Intruders - текст песни, таба, видео

Регистрация Запомнить меня
Войти через:  Facebook Google Twitter Vk Yandex Mail.ru

Bruce Dickinson - Soul Intruders - текст песни, таба, видео

Печатать
Просмотров: 171
Album: (Tyranny Of Souls)
Song:  (Soul Intruders)

Copyright (c)  (Sanctuary) (2005)
Version 1.0 - (30-12-05)

Transcribed By: (selina)
Email:          (ironmaiden666666@ya.ru)


.  - palm mute           /  - slide up to
\  - slide down to       ~  - vibrato
h  - hammer on           b  - Bend
p  - pull off            Suffixes for bend
t  - tap                 f  - full bend    h - half bend
ph - pinched harmonic    q  - quarter bend t - tap bend
*  - see comment         ^  - Hold bend    r release bend
x  - Stuccatto           ~  - vibrato bend
,  - slight palm mute    () - ghost note, sustained note
"  - tremolo note        <> - Trill

Tuning E A D G B E

Riff 1                      x4    verse:
|-----------------------------|-----------------------------------------|
|-----------------------------|-----------------------------------------|
|-----------------------------|-----------------------------------------|
|-7-6-5-4---------------------|-5-4-3-5-4-3-------------------------5-5-|
|-5-4-3-2---------------------|-------------------------------------3-3-|
|---------22222222222222222222|-------------2-2-3-2-2-3-2-2-3-2-2-3-----|
          ....................
Riff 2                                                            x2
|-------------------------------------------------------------------|
|-------------------------------------------------------------------|
|-------------------------------------------------------------------|
|-------------7-7-5-5-------------------------7-7-5-5-5-4-3---------|
|-22222222222-5-5-3-3---------4-3-2-222222222-5-5-3-3-------5-4-3-4-|
|-00000000000---------2-3-4-3-------000000000-----------------------|
  ...........                       .........

Riff 3
|-------------------------------------------------------------------|
|-------------------------------------------------------------------|
|-------------------------------------------------------------------|
|-9999999999999-9999999999999-99-9-9""""----------------------------|
|-7777777777777-7777777777777-77-7-7--------------------------------|
|-------------------------------------------------------------------|
  ............. .............

Riff 4 (chorus) - We're the soul intruders"....
                                                                |--------|2nd
|---------------------------------------------------------------------|--------|
|---------------------------------------------------------------------|--------|
|---------------------------------------------------------------------|--------|
|----7----7-666-5----7----7-666-5---4----4-666-5----7----7-9999999999-|--------|
|----5----5-444-3----5----5-444-3---2----2-444-3----5----5-7777777777-|-7-5"""-|
|-00---00---------00---00---------00---00--------00---00--------------|-5-3----|
  ..   ..         ..   ..         ..   ..        ..   ..   ..........

-Verse
-Riff 2
-Riff 3
-Riff 4 (chorus) Then:

|--------------|
|--------------|
|--------------|>> Play just before the solo
|--------------|
|--7-8-9"""""--|
|--5-6-7-------|

Riff 5 (rhythm for solo)

|---------------------------------------------------------|
|---------------------------------------------------------|
|---------------------------------------------------------|
|---------------------------------------------------------|
|-5555555-7777777-66-77-66-77-5555555-7777777-66-77-66-77-|
|-3333333-5555555-44-55-44-55-3333333-5555555-44-55-44-55-|

|---------------------------------------------------------|
|---------------------------------------------------------|
|---------------------------------------------------------|
|---------------------------------------------------------|
|-44444-33333-22222-33333-55555-77777-55555--5-7"""""-----|
|-22222-11111-00000-11111-33333-55555-33333--3-5----------|

Riff 3
Riff 4 (chorus)
Riff 1 Then:

|----------------|
|----------------|
|----------------|>> Play this just before the verse.
|-5-4-3----------|
|-------5-4-3-4--|
|----------------|

-verse-

END


                
Добавлено: 04.06.2012
Другие материалы по этой песне:
  • Аккорды и текст

Страница создана 04.06.2012
http://primanota.ru/bruce-dickinson/soul-intruders-chords.htm
Привет, Гость.
Предлагаем пройти революционный курс по гитаре.
Подарок от PrimaNota.Ru, забирай!