PrimaNota.ru - самый крупный в мире бесплатный архив песенных текстов, аккордов, табулатур и нот


Bruce Dickinson - Inside The Machine - текст песни, таба, видео

Регистрация Запомнить меня
Войти через:  Facebook Google Twitter Vk Yandex Mail.ru

Bruce Dickinson - Inside The Machine - текст песни, таба, видео

Печатать
Просмотров: 178
Уроки эстрадного вокала в Санкт-Петербурге
main/intro riff
e--------------------------------------|
b--------------------------------------|
g--------------------------------------|
d--------------------------------------|
a--3/5-5--3/5-5-3/5--3/5-5-3/5-5-3-----|
e--1/3-3--1/3-3-1/3--1/3-3-1/3-3-1-----|

bground solo gtr while the other gtr plays the "funky riff" (with delay/chorus -effects etc.)
1.                2.
e---------------- -------------------------------------------------|
b-------10----12- --13--12------------------13--12-----------------|
g-12------------- ----------10--12--10--------------10--12--10-----|
d---------------- ----------------------12----------------------12-|
a---------------- -------------------------------------------------|
e---------------- -------------------------------------------------|

verse
e----------------------------------------|
b----------------------------------------|
g----------------------------5-5-5-5-----|
d----------------------------3-3-3-3-----|
a--7--7--7--7--7/9--5--5--5--------------|
e--5--5--5--5--5/7--3--3--3--------------|
      *     *          *
funky riff
e------------------------------------------------------|
b------------------------------------------------------|
g------------------------------------------------------|
d--------5-------5---5-----------5-------5----5-5-5-5--|
a------------------------------------------------------|
e--3-3-3----x-3---3---3---3-3-3----x-3----3------------|

chorus riff
e------------------------------------|
B------------------------------------|
G------------------------------------|
D-2------3--------7--------9--10--9--|
A-2------3--------7--------9--10--9--|
E-0------1--------5--------7--8---7--|

bridge before solo
e----------------------------------------|
b----------------------------------------|
g---------5--4--0h3p0--------------------|
d----------------------------------------|
a-5-5--3-----------------5-5--3----------|
e-3-3--1-----------------3-3--1----------|
                        (ending riff is the same)
Добавлено: 24.05.2012
Другие материалы по этой песне:

Страница создана 28.04.2012
http://primanota.ru/bruce-dickinson/inside-the-machine-chords.htm
Привет, Гость.
Предлагаем пройти революционный курс по гитаре.
Подарок от PrimaNota.Ru, забирай!