PrimaNota.ru - самый крупный в мире бесплатный архив песенных текстов, аккордов, табулатур и нот


Bruce Dickinson - Believil - текст песни, бас-таба, видео

Регистрация Запомнить меня
Войти через:  Facebook Google Twitter Vk Yandex Mail.ru

Bruce Dickinson - Believil - текст песни, бас-таба, видео

Печатать
Просмотров: 163
Believil                                     


                                                                 Bruce Dickinson
Bass


    INTRO
      W                   W                   W                 
F#||-------------------|-------------------|-------------------|
C#||-------------------|-------------------|-------------------|
G#||--5----------------|--L----------------|--L----------------|
C#||-------------------|-------------------|-------------------|


  H        H           W                   W                 
--------------------|-------------------|-------------------|
--------------------|-------------------|-------------------|
--L--------6--------|--5----------------|--L----------------|
--------------------|-------------------|-------------------|


  W                   H        H           W                 
-------------------|--------------------|-------------------|
-------------------|--------------------|-------------------|
--L----------------|--L--------6--------|--5----------------|
-------------------|--------------------|-------------------|


  W                   W                   H        H         
-------------------|-------------------|--------------------|
-------------------|-------------------|--------------------|
--L----------------|--L----------------|--L--------6--------|
-------------------|-------------------|--------------------|


  W                   W                   W                 
-------------------|-------------------|-------------------|
-------------------|-------------------|-------------------|
--5----------------|--L----------------|--L----------------|
-------------------|-------------------|-------------------|

                     VERSE
  H        H           W                   W                 
--------------------|-------------------|-------------------|
--------------------|-------------------|-------------------|
--L--------6--------|-------------------|-------------------|
--------------------|--0----------------|--L----------------|


  W                   W                   W                 
-------------------|-------------------|-------------------|
-------------------|-------------------|-------------------|
-------------------|-------------------|-------------------|
--6----------------|--L----------------|--5----------------|


  Q    E  E  E  Q.        Q.     E  H           W                 
-----------------------|---------------------|-------------------|
-----------------------|---------------------|-------------------|
-----------------------|------------5--------|--L----------------|
--L----5--6--5--3------|--0------0-----------|-------------------|


  W                   W                   W                   W                 
-------------------|-------------------|-------------------|-------------------|
-------------------|-------------------|-------------------|-------------------|
-------------------|-------------------|-------------------|-------------------|
--0----------------|--L----------------|--6----------------|--L----------------|


  W                   Q    E  E  E  Q.        Q.     E  H         
-------------------|-----------------------|---------------------|
-------------------|-----------------------|---------------------|
-------------------|-----------------------|------------5--------|
--5----------------|--L----5--6--5--3------|--0------0-----------|


  W                   W                   W                   W                 
-------------------|-------------------|-------------------|-------------------|
-------------------|-------------------|-------------------|-------------------|
--L----------------|-------------------|-------------------|-------------------|
-------------------|--7----------------|--L----------------|--6----------------|


  W                   W                   Q    E  E  E  Q.      
-------------------|-------------------|-----------------------|
-------------------|-------------------|-----------------------|
-------------------|-------------------|-----------------------|
--L----------------|--5----------------|--L----5--6--5--3------|


  Q.     E  H           W                   W                 
---------------------|-------------------|-------------------|
---------------------|-------------------|-------------------|
------------5--------|--L----------------|-------------------|
--0------0-----------|-------------------|--7----------------|


  H          H           W                   W                 
----------------------|-------------------|-------------------|
----------------------|-------------------|-------------------|
----------------------|-------------------|-------------------|
--L--------/12--------|--6----------------|--L----------------|


  W                   Q    E  E  E  Q.        Q.     E  H         
-------------------|-----------------------|---------------------|
-------------------|-----------------------|---------------------|
-------------------|-----------------------|------------5--------|
--5----------------|--L----5--6--5--3------|--0------0-----------|

                        CHORUS
  H        E  E  E  E     E  E  E  E  Q    E  E     E  E  Q    E  E  E  E   
-----------------------|-------------------------|-------------------------|
-----------------------|-------------------------|-------------------------|
--L--------3--3--3--3--|--3--5-------------------|-------------3--3--3--3--|
-----------------------|--------0--0--3----0--5--|--L--0--6----------------|


  E  E  E  E  Q    E  E     E  E  Q    E  E  E  E     E  E  E  E  Q    E  E   
-------------------------|-------------------------|-------------------------|
-------------------------|-------------------------|-------------------------|
--3--5-------------------|-------------3--3--3--3--|--3--5-------------------|
--------0--0--3----0--5--|--L--0--6----------------|--------0--0--3----0--5--|


  E  E  Q    E  E  E  E     E  E  E  E  Q    E  E     E  E  Q    E  E  E  E   
-------------------------|-------------------------|-------------------------|
-------------------------|-------------------------|-------------------------|
-------------3--3--3--3--|--3--5-------------------|-------------3--3--3--3--|
--L--0--6----------------|--------0--0--3----0--5--|--L--0--6----------------|


  E  E  E  E  Q    E  E     E  E  Q    E  E  E  E     E  E  E  E  Q    E  E   
-------------------------|-------------------------|-------------------------|
-------------------------|-------------------------|-------------------------|
--3--5-------------------|-------------3--3--3--3--|--3--5-------------------|
--------0--0--3----0--5--|--L--0--6----------------|--------0--0--3----0--5--|


  E  E  Q    E  E  E  E     E  E  E  E  Q    E  E     E  E  Q    E  E  E  E   
-------------------------|-------------------------|-------------------------|
-------------------------|-------------------------|-------------------------|
-------------3--3--3--3--|--3--5-------------------|-------------3--3--3--3--|
--L--0--6----------------|--------0--0--3----0--5--|--L--0--6----------------|


  E  E  E  E  Q    E  E     E  E  Q    E  E  E  E     W                 
-------------------------|-------------------------|-------------------|
-------------------------|-------------------------|-------------------|
--3--5-------------------|-------------3--3--3--3--|-------------------|
--------0--0--3----0--5--|--L--0--6----------------|--0----------------|


  W                   W                   W                   W                 
-------------------|-------------------|-------------------|-------------------|
-------------------|-------------------|-------------------|-------------------|
-------------------|-------------------|-------------------|-------------------|
--L----------------|--L----------------|--L----------------|--L----------------|

                                                            VERSE
  W                   W                   W                   W                 
-------------------|-------------------|-------------------|-------------------|
-------------------|-------------------|-------------------|-------------------|
-------------------|-------------------|-------------------|-------------------|
--L----------------|--L----------------|--L----------------|--7----------------|


  W                   W                   W                   W                 
-------------------|-------------------|-------------------|-------------------|
-------------------|-------------------|-------------------|-------------------|
-------------------|-------------------|-------------------|-------------------|
--L----------------|--6----------------|--L----------------|--5----------------|


  Q    E  E  E  Q.        Q.     E  H           W                 
-----------------------|---------------------|-------------------|
-----------------------|---------------------|-------------------|
-----------------------|------------5--------|--L----------------|
--L----5--6--5--3------|--0------0-----------|-------------------|


  W                   W                   W                   W                 
-------------------|-------------------|-------------------|-------------------|
-------------------|-------------------|-------------------|-------------------|
-------------------|-------------------|-------------------|-------------------|
--7----------------|--L----------------|--6----------------|--L----------------|


  W                   Q    E  E  E  Q.        Q.     E  H         
-------------------|-----------------------|---------------------|
-------------------|-----------------------|---------------------|
-------------------|-----------------------|------------5--------|
--5----------------|--L----5--6--5--3------|--0------0-----------|

                        CHORUS
  H        E  E  E  E     E  E  E  E  Q    E  E     E  E  Q    E  E  E  E   
-----------------------|-------------------------|-------------------------|
-----------------------|-------------------------|-------------------------|
--L--------3--3--3--3--|--3--5-------------------|-------------3--3--3--3--|
-----------------------|--------0--0--3----0--5--|--L--0--6----------------|


  E  E  E  E  Q    E  E     E  E  Q    E  E  E  E     E  E  E  E  Q    E  E   
-------------------------|-------------------------|-------------------------|
-------------------------|-------------------------|-------------------------|
--3--5-------------------|-------------3--3--3--3--|--3--5-------------------|
--------0--0--3----0--5--|--L--0--6----------------|--------0--0--3----0--5--|


  E  E  Q    E  E  E  E     E  E  E  E  Q    E  E     E  E  Q    E  E  E  E   
-------------------------|-------------------------|-------------------------|
-------------------------|-------------------------|-------------------------|
-------------3--3--3--3--|--3--5-------------------|-------------3--3--3--3--|
--L--0--6----------------|--------0--0--3----0--5--|--L--0--6----------------|


  E  E  E  E  Q    E  E     E  E  Q    E  E  E  E     E  E  E  E  Q    E  E   
-------------------------|-------------------------|-------------------------|
-------------------------|-------------------------|-------------------------|
--3--5-------------------|-------------3--3--3--3--|--3--5-------------------|
--------0--0--3----0--5--|--L--0--6----------------|--------0--0--3----0--5--|


  E  E  Q    E  E  E  E     E  E  E  E  Q    E  E     E  E  Q    E  E  E  E   
-------------------------|-------------------------|-------------------------|
-------------------------|-------------------------|-------------------------|
-------------3--3--3--3--|--3--5-------------------|-------------3--3--3--3--|
--L--0--6----------------|--------0--0--3----0--5--|--L--0--6----------------|

                                                    INTERLUDE 1
  E  E  E  E  Q    E  E     E  E  Q    E  E  E  E     W                 
-------------------------|-------------------------|-------------------|
-------------------------|-------------------------|-------------------|
--3--5-------------------|-------------3--3--3--3--|-------------------|
--------0--0--3----0--5--|--L--0--6----------------|--0----------------|


  W                   W                   W                   W                 
-------------------|-------------------|-------------------|-------------------|
-------------------|-------------------|-------------------|-------------------|
-------------------|-------------------|-------------------|-------------------|
-------------------|-------------------|-------------------|-------------------|


  W                   W                   W                 
-------------------|-------------------|-------------------|
-------------------|-------------------|-------------------|
-------------------|-------------------|-------------------|
-------------------|-------------------|-------------------|

INTERLUDE 2
  Q    Q    E  E  E  E     E  E  E  E  E  E  E  E     Q    Q    E  E  E  E   
------------------------|--------------------------|------------------------|
------------------------|--------------------------|------------------------|
------------------------|--------------------------|------------------------|
--7----6----0--0--0--1--|--0--3--0--0--1--0--0--0--|--7----6----0--0--0--1--|


  E  E  E  E  E  E  E  E     Q    Q    E  E  E  E     E  E  E  E  E  E  E  E   
--------------------------|------------------------|--------------------------|
--------------------------|------------------------|--------------------------|
--------------------------|------------------------|--------------------------|
--0--3--0--0--1--0--0--0--|--7----6----0--0--0--1--|--0--3--0--0--1--0--0--0--|


  Q    Q    E  E  E  E     E  E  E  E  E  E  E  E     Q    Q    E  E  E  E   
------------------------|--------------------------|------------------------|
------------------------|--------------------------|------------------------|
------------------------|--------------------------|------------------------|
--7----6----0--0--0--1--|--0--3--0--0--1--0--0--0--|--7----6----0--0--0--1--|


  E  E  E  E  E  E  E  E     Q    Q    E  E  E  E     E  E  E  E  E  E  E  E   
--------------------------|------------------------|--------------------------|
--------------------------|------------------------|--------------------------|
--------------------------|------------------------|--------------------------|
--0--3--0--0--1--0--0--0--|--7----6----0--0--0--1--|--0--3--0--0--1--0--0--0--|


  Q    Q    E  E  E  E     E  E  E  E  E  E  E  E     Q    Q    E  E  E  E   
------------------------|--------------------------|------------------------|
------------------------|--------------------------|------------------------|
------------------------|--------------------------|------------------------|
--7----6----0--0--0--1--|--0--3--0--0--1--0--0--0--|--7----6----0--0--0--1--|

                           CHORUS
  E  E  E  E  E  E  E  E     E  E  E  E  Q    E  E     E  E  Q    E  E  E  E   
--------------------------|-------------------------|-------------------------|
--------------------------|-------------------------|-------------------------|
--------------3--3--3--3--|--3--5-------------------|-------------3--3--3--3--|
--0--3--0--0--------------|--------0--0--3----0--5--|--L--0--6----------------|


  E  E  E  E  Q    E  E     E  E  Q    E  E  E  E     E  E  E  E  Q    E  E   
-------------------------|-------------------------|-------------------------|
-------------------------|-------------------------|-------------------------|
--3--5-------------------|-------------3--3--3--3--|--3--5-------------------|
--------0--0--3----0--5--|--L--0--6----------------|--------0--0--3----0--5--|


  E  E  Q    E  E  E  E     E  E  E  E  Q    E  E     E  E  Q    E  E  E  E   
-------------------------|-------------------------|-------------------------|
-------------------------|-------------------------|-------------------------|
-------------3--3--3--3--|--3--5-------------------|-------------3--3--3--3--|
--L--0--6----------------|--------0--0--3----0--5--|--L--0--6----------------|


  E  E  E  E  Q    E  E     E  E  Q    E  E  E  E     E  E  E  E  Q    E  E   
-------------------------|-------------------------|-------------------------|
-------------------------|-------------------------|-------------------------|
--3--5-------------------|-------------3--3--3--3--|--3--5-------------------|
--------0--0--3----0--5--|--L--0--6----------------|--------0--0--3----0--5--|


  E  E  Q    E  E  E  E     E  E  E  E  Q    E  E     E  E  Q    E  E  E  E   
-------------------------|-------------------------|-------------------------|
-------------------------|-------------------------|-------------------------|
-------------3--3--3--3--|--3--5-------------------|-------------3--3--3--3--|
--L--0--6----------------|--------0--0--3----0--5--|--L--0--6----------------|

                                                    OUTRO
  E  E  E  E  Q    E  E     E  E  Q    E  E  E  E     W                 
-------------------------|-------------------------|-------------------|
-------------------------|-------------------------|-------------------|
--3--5-------------------|-------------3--3--3--3--|--5----------------|
--------0--0--3----0--5--|--L--0--6----------------|-------------------|


  W                   W                   W                   W                 
-------------------|-------------------|-------------------|-------------------|
-------------------|-------------------|-------------------|-------------------|
--L----------------|--L----------------|--L----------------|--L----------------|
-------------------|-------------------|-------------------|-------------------|


  W                   W                   H        H         
-------------------|-------------------|--------------------|
-------------------|-------------------|--------------------|
--L----------------|--L----------------|--L--------6--------|
-------------------|-------------------|--------------------|


  W                   W                   W                 
-------------------|-------------------|-------------------|
-------------------|-------------------|-------------------|
--5----------------|--L----------------|--L----------------|
-------------------|-------------------|-------------------|


  H        H           W                   W                 
--------------------|-------------------|-------------------|
--------------------|-------------------|-------------------|
--L--------6--------|--5----------------|--L----------------|
--------------------|-------------------|-------------------|


  W                   H        H           W                 
-------------------|--------------------|-------------------|
-------------------|--------------------|-------------------|
--L----------------|--L--------6--------|--5----------------|
-------------------|--------------------|-------------------|


  W                   W                   H        H         
-------------------|-------------------|--------------------|
-------------------|-------------------|--------------------|
--L----------------|--L----------------|--L--------6--------|
-------------------|-------------------|--------------------|


  W                   W                   W                   W                 
-------------------|-------------------|-------------------|-------------------|
-------------------|-------------------|-------------------|-------------------|
--5----------------|--L----------------|--L----------------|--L----------------|
-------------------|-------------------|-------------------|-------------------|


  W                   W                   W                   W                 
-------------------|-------------------|-------------------|-------------------|
-------------------|-------------------|-------------------|-------------------|
--L----------------|--L----------------|--L----------------|--L----------------|
-------------------|-------------------|-------------------|-------------------|


  W                   W                   W                 
-------------------|-------------------|-------------------|
-------------------|-------------------|-------------------|
--L----------------|--L----------------|--L----------------|
-------------------|-------------------|-------------------|


  W                  
-------------------||
-------------------||
--L----------------||
-------------------||




Duration Legend
---------------
W - whole
H - half
Q - quarter
E - 8th
S - 16th
T - 32nd
X - 64th
. - note dotted
|-n-|  - n-tuplets


Tablature Legend
----------------
L - tied note
x - dead note
g - grace note
(n) - ghost note
> - accentuded note
NH - natural harmonic
AH - artificial harmonic
TH - tapped harmonic
SH - semi harmonic
PH - pitch harmonic
h - hammer on
p - pull off
b - bend
br - bendRelease
pb - preBend
pbr - preBendRelease
brb - bendReleaseBend
\n/ - tremolo bar dip
\n - tremolo bar dive
-/n - tremolo bar Release up
/n\ - tremolo bar inverted dip
/n - tremolo bar return
-\n - tremolo bar Release down
S - shift slide
s - legato slide
/ -  slide into from below or out of upwards
\ -  slide into from above or out of downwards
~ - vibrato
W - wide vibrato
tr - trill
TP - tremolo picking
T - tapping
S - slap
P - pop
< - fade in
^ - brush up
v - brush down
Добавлено: 17.04.2012
Другие материалы по этой песне:

Страница создана 29.02.2012
http://primanota.ru/bruce-dickinson/believil-chords.htm
Привет, Гость.
Предлагаем пройти революционный курс по гитаре.
Подарок от PrimaNota.Ru, забирай!