PrimaNota.ru - самый крупный в мире бесплатный архив песенных текстов, аккордов, табулатур и нот


Bruce Cockburn - Thoughts On A Rainy Afternoon - текст песни, таба, видео

Регистрация Запомнить меня
Войти через:  Facebook Google Twitter Vk Yandex Mail.ru

Bruce Cockburn - Thoughts On A Rainy Afternoon - текст песни, таба, видео

Печатать
Просмотров: 142
Уроки эстрадного вокала в Санкт-Петербурге
Tabbed by Joe (tabs at stype dot org)

One of my favorite Bruce Cockburn songs.  This is as much as I was able to figure out.

--'-'-'-|-'-'-'---|-'-'-'-|-'-'-'---|-'-'-'-|-'-'-'-|-'-'-'-|-'-'-'-|
E---2-2-|---2-2---|---2-2-|---2-2---|---2-2-|---2-2-|---2-2-|---2-2-|
B---2-2-|---2-2---|---2-2-|---2-2---|---2-2-|---2-2-|---2-2-|---2-2-|
G-------|---2-----|---2-2-|---2-2---|---2-2-|---2-2-|---2-2-|---2-2-|
D-4-----|-4-------|-4-----|-4-------|-4-----|-3-----|-2-----|-1-----|
A-------|-------4-|-------|-------4-|-------|-------|-------|-------|
E-------|---------|-------|---------|-------|-------|-------|-------|
                              Verse:| Rain    rings   trash   can

--'-'-'-|-'-'-'---|-'-'-'-|-'-'-'-|-'-'-'---|-'-'-'---|-'---'-'-|-'---'-'-|
E---0-0-|---0-0---|---0-0-|---0-0-|---------|---------|---------|---------|
B---5-5-|---5-5---|---5-5-|---5-5-|---3-3---|---3-3---|-----3-3-|-----3-3-|
G---6-6-|---6-6---|---6-6-|---6-6-|---0-0---|---0-0---|-----0-0-|-----0-0-|
D-0-----|-0-------|-0-----|-0-----|---2-2---|-2-------|---2-----|---2-----|
A-------|-------0-|-------|-------|-2-------|---------|-2-------|-2-------|
E-------|---------|-------|-------|-------0-|-------0-|---------|---------|
  bells                     and what do you know     

--'-'-'-|-'-'-'-|-'-'-'-|-'---'-'-|-'-'-'-|-'---'-'-|
E-------|-------|-------|-----0-0-|---0-0-|-----0-0-|
B-------|---3-3-|---5-5-|-----5-5-|---5-5-|-----5-5-|
G---2-2-|---4-4-|---6-6-|-----4---|-------|-----4---|
D---2-2-|---4-4-|---6-6-|---6---6-|---6-6-|---6---6-|
A-0-----|-2-----|-4-----|-4-------|-4-----|-4-------|
E-------|-------|-------|---------|-------|---------|
  My alley becomes a cathedral

Repeat verse progression

2nd verse:
Eyes can be archways
To enter or leave by
Vacuums replaced by a crystal 


--'-'-'-|-'-'-'-|-'-'-'-|-'-'-'---|-'-'-'-|-'-'-'-|-'---'-'-|-'-'-'-|
E---2-2-|---2-2-|---0-0-|---0-0---|---3-3-|---3-3-|---------|-------|
B---2-2-|---2-2-|---3-3-|---3-3---|---3-3-|---3-3-|-----2---|-2-3-5-|
G---2-2-|---2-2-|---1-1-|---1-1---|---0-0-|---0-0-|-----2-2-|-------|
D-0-----|-0-----|-------|---------|-------|-------|---2-----|-------|
A-------|-------|-------|---------|-------|-------|-0-------|-0-0-0-|
E-------|-------|-0-----|-0-----2-|-3-----|-3-----|---------|-------|
          Jesus   Don't let Toronto take my song away

--'-'-'---|-'-'-'-|-'-'-'-|-'-'-'-|-'-'-'-----|-'---'-'-|-'---'-'-|-'---'-'-|
E-2-------|-2-4-5-|-4-----|-7-5-4-|-2-2-------|-----4-4-|-----5-5-|-----2-2-|
B-2-------|-2-----|-5-----|-9-7-5-|-2-2-2-----|-----2-2-|-----2-2-|-----2-2-|
G-2-2-2---|-2-2-2-|-4-----|-------|-2-2---2---|---2---2-|---2---2-|---2---2-|
D-0-----0-|-0-----|-------|-------|-4-4-----4-|-3-------|-2-------|-1-------|
A---------|-------|-------|-------|-----------|---------|---------|---------|
E---------|-------|-0-0-0-|-0-0-0-|-----------|---------|---------|---------|

(From here it basically goes into the verse chords again but higher up the neck.
I never figured that part out entirely.  I think a 2nd guitar comes in, too)

It's easy to love if
You let yourself love it
But like a moth's wing it's easily crushed 

Jesus don't let tomorrow take my love away
Добавлено: 05.07.2012
Другие материалы по этой песне:
  • Аккорды и текст

Страница создана 27.06.2012
http://primanota.ru/bruce-cockburn/thoughts-on-a-rainy-afternoon-chords.htm
Привет, Гость.
Предлагаем пройти революционный курс по гитаре.
Подарок от PrimaNota.Ru, забирай!