PrimaNota.ru - самый крупный в мире бесплатный архив песенных текстов, аккордов, табулатур и нот


Bruce Cockburn - The Coldest Night Of The Year - текст песни, таба, видео

Регистрация Запомнить меня
Войти через:  Facebook Google Twitter Vk Yandex Mail.ru

Bruce Cockburn - The Coldest Night Of The Year - текст песни, таба, видео

Печатать
Просмотров: 208
Bruce Cockburn : "The Coldest Night of the Year"

Here's a couple chunks of this tune - if anyone knows (or can
deduce) the rest, please complete.

Main riff
-------------|------------|------------|------------|
-------3-----|-------3----|-------3----|-------3----|
-----2---2---|-----2---2--|-----4---4--|-----4---4--|
---4-------4-|---4--------|---4-------4|---4-------4|
-5-----------|-5--------4-|-2----------|-2----------|
-------------|------------|------------|------------|

-------0-----|-------0----|-------0----|-------0----|
-----0---0---|-----0---0--|-----0---0--|-----0---0--|
---0-------0-|---0-------0|---0-------0|---0-------0|
-2-----------|-2----------|S7----------|-7----------|
-------------|------------|------------|------------|
-------------|------------|------------|------------|

And the bit after the chorus :

---------10-------|---------10-------|
------10----10----|------10----10----|
---12----------10-|---11----------11-|
-0----------------|-0----------------|
------------------|------------------|
------------------|------------------|

--------10--------|---------10-------|
-----10----10-----|------10----10----|
---9----------9---|---11----------11-|
-0----------------|-0----------------|
------------------|------------------|
------------------|------------------|
Добавлено: 27.07.2012
Другие материалы по этой песне:

Страница создана 25.03.2012
http://primanota.ru/bruce-cockburn/the-coldest-night-of-the-year-chords.htm
Привет, Гость.
Предлагаем пройти революционный курс по гитаре.
Подарок от PrimaNota.Ru, забирай!