PrimaNota.ru - самый крупный в мире бесплатный архив песенных текстов, аккордов, табулатур и нот


Bruce Cockburn - Red Brother Red Sister - текст песни, таба, видео

Регистрация Запомнить меня
Войти через:  Facebook Google Twitter Vk Yandex Mail.ru

Bruce Cockburn - Red Brother Red Sister - текст песни, таба, видео

Печатать
Просмотров: 136
-----------------------------------------------------------------------------
        RED BROTHER RED SISTER - Bruce Cockburn
-----------------------------------------------------------------------------
Tabbed by: Jake Redekopp
Email: jascha00 gmail.com


Intro (Play twice):

     H        E  E     Q.     S  S E.  S    Q    Q    E  S  S     Q    Q    Q     
E||--3--------------|--1------1p-0-------|-------0----0--------|-------0----0----|
B||--5--------------|--3-----------3---1-|--1----1----1--------|-------1----1----|
G||*-0-----------0--|--------------4---2-|--2----2----2--2p-0h-|--2----2----2----|
D||*----------------|--------------------|-------3----3--------|-------3----3----|
A||-----------------|--------------------|---------------------|-----------------|
E||-----------------|--------------------|---------------------|-----------------|
                                                   ________________ ________________
                                                   1st Time        | 2nd Time       |
  Q    Q    Q      H      Q      E  E  Q    E.  S    E.  S Q    Q  |  Q    Q    Q   |  
----------------|------------|------------------0-|--------0----0--|----------------|
--0----1----0---|--1---------|--------------------|--------1----1--|----------------|
--0----0----0---|--2------0--|------0--0----0-----|--------0----0-*|----------------|
----------------|--3---------|--/2-----2----2-----|------2-2----2-*|-------0----2---|
----------------|------------|--/3-----3----3-----|--3-------------|--3-------------|
----------------|------------|--------------------|----------------|----------------|

Verse (Play twice):

     Q    Q    E  E     Q    Q    Q       E  E  Q    Q       Q    Q    Q     
E||--1----1----1-----|-------0----0----|--3--0--0----0----|-------0----0----|
B||--1----1----1-----|-------1----1----|--------1----1----|-------1----1----|
G||*-2----2----2-----|-------0----0----|--0-----0----0----|-------0----0----|
D||*-3----3----3-----|-------2----2----|--------2----2----|-------2----2----|
A||---------------2--|--3----3----3----|-----3--3----3----|--3----3----3----|
E||------------------|-----------------|------------------|-----------------|
___________________________________________________________________________
1st Time                                                                   |
  Q    Q    E  E     Q    Q    Q       Q.     E  E  E       Q    Q    Q    |
--1----1----1-----|-------0----0----|--3---------3-----|----3----3----3----|
--1----1----1-----|-------1----1----|--1---------1-----|--1h3----3----3----|
--2----2----2-----|-------0----0----|--0------0-----0--|---------0----0---*|
--3----3----3-----|-------2----2----|------------------|------------------*|
---------------2--|--3----3----3----|------------------|-------------------|
------------------|-----------------|------------------|-------------------|
 
_______________________________________________________________________________
2nd Time                                                                       |
                                                                     |---3--|  |  
  Q    Q    Q       Q    Q    Q       Q    Q    E  S  S    Q    Q    E   E  E  | 
-------5----5----|-------3----3----|-------1----1-------|--1----1--------------|
-------6----6----|-------0----0----|-------1----1-------|-------1--------------|
-------5----5----|-------5----5----|-------2----2--0h-2-|-------2----2p--0-----|
--3--------------|--2--------------|--0-----------------|-------------------0--|
-----------------|-----------------|--------------------|----------------------|
-----------------|-----------------|--------------------|----------------------|

Chorus (Play twice):

     Q    Q    Q       Q    Q    E  E     Q    Q    E  S  S    Q    Q    E   E  E   
E||--5----5----5----|--7----7----7-----|-------1----1-------|--1----1--------------|
B||--5----5----5----|--8----8----8-----|-------1----1-------|-------1--------------|
G||*-5----5----5----|--0----0----0-----|-------2----2--0h-2-|-------2----2p--0-----|
D||*-7----7----7----|---------------2--|--3----3----3-------|-------3-----------0--|
A||--0--------------|------------------|--------------------|----------------------|
E||-----------------|------------------|--------------------|----------------------|
 
_________________________________________________________________________
1st Time                                                                 |
  Q    Q    E.  S    Q    Q    E.  S    Q    Q    Q       Q    Q    Q    |  
--1----1----1-----|--0----0----0-----|-------0----0----|-------0----0----|
--1----1----1-----|--1----1----1-----|-------1----1----|-------1----1----|
--2----2----2-----|--2----2----2-----|-------0----0----|-------0----0---*|
-------0----0-----|--2----2----2-----|-------2----2----|-------2----2---*|
----------------0-|-------0----0---2-|--3---------3----|--3----3----3----|
------------------|------------------|-----------------|-----------------|
 
_______________________________________________________________________
2nd Time                                                               || 
  Q    Q    Q       H        E.  S    Q    Q    Q       Q    Q    Q    ||  
-------1----1----|--0--------------|-------0----0----|-----------------||
-------1----1----|--1--------------|-------1----1----|-----------------||
-------2----2----|--4--------------|-------0----0----|-----------------||
--0---------0----|--2--------------|-------2----2----|-------0----2----||
-----------------|--0--------0---2-|--3---------3----|--3--------------||
-----------------|-----------------|-----------------|-----------------||

Verse 2 | Chorus | Verse 3 | Chorus

End: Play the first 6 1/2 bars of the intro

Добавлено: 11.04.2012
Другие материалы по этой песне:
  • Аккорды и текст

Страница создана 11.04.2012
http://primanota.ru/bruce-cockburn/red-brother-red-sister-chords.htm
Привет, Гость.
Предлагаем пройти революционный курс по гитаре.
Подарок от PrimaNota.Ru, забирай!