PrimaNota.ru - самый крупный в мире бесплатный архив песенных текстов, аккордов, табулатур и нот


Bruce Cockburn - Islands In A Black Sky - таба, видео

Регистрация Запомнить меня
Войти через:  Facebook Google Twitter Vk Yandex Mail.ru

Bruce Cockburn - Islands In A Black Sky - таба, видео

Печатать
Просмотров: 111
Уроки эстрадного вокала в Санкт-Петербурге
Авторы музыки: Bruce Cockburn
Авторы текста: Bruce Cockburn
Islands in a Black Sky by Bruce Cockburn

From the album, Night Vision (1973)

Here's one for all the fingerpickers out there.  This is pretty close, Bruce's style is hard to tab.
Enjoy!

Standard Tuning (actually down a half-tone)

|---0-0-0-0-0---0-0-0-0-0---0-0-0-0-0----0-0-0-0-0---0-0-0-0-0---0-0-0-0-0--|
|----0-0-0-0-0---0-0-0-0-0---0-0-0-0-0----0-0-0-0-0---0-0-0-0-0---0-0-0-0-0-|
|-------------------7---------2-----0------2-----0-------7-----------9---7--|
|---4-5-7-5-4---4-5-----4---0---4--------0---4-------4-5-----4---4-5--------|
|-7-----------7-----------3------------3-----------7-----------7------------|
|-0-----------0-----------0------------0-----------0-----------0------------|


-0-0-0-0-0-0-0-0-0-0-0-0------------------------- ~ ------------------------0|
--0-0-0-0-0-0-0-0-0-0-0----0-3-7-108--7-----7-----7-5-----5-----------------0|
-5-----5-----5-----5-----2-0-4-7-9-9--7-----7-------------------76--50-------|
-3-----3-----3-----3------------------7----7-----7-------7--------75-54-2-0--|
-------------0--------------------------------------0-0-0-0-0-0-0---------2-7|
-------------------------0-0-0-0-0-0--7-7---7-7---7-------------------------0|

x2 (last time to coda)

|-5-0-5-0-5-0-8-0-8-0-8-0-------------7-0-7-0-7-0-|
|--3-0-3-0-3-0-6-0-6-0-6-07-0-7-0-7-0--5-0-5-0-5-0|
|-0-2-0-2-0-2-0-5-0-5-0-5--5-0-5-0-5-00-4-0-4-0-4-|
|-------------------------0-4-0-4-0-4-------------| x4
|-------------------------------------------------|
|-------------------------------------------------|


-------------------7--------------------8-7-------0-------------107-|
-5-4--5-10-8-7--810---0578-7-3-5-10-8-7-----8-------5-10-8-7--810---|
-------------------7------------------------11--------------------7-|
---4--5-10-9-7--------0579-7-4-5-10-9-7-------------5-10-9-7--------|
-2----0------------------------0--------------------0---------------|
-------------8-----7-----0------------8-----0--------------8------7-|


-------------------108-7---7------12----------------------12---12-------------------|
-0578-7-3-5-10-8-7-----8----8-------8--8--8--8--8--8--8--8--8----8--8--8--8--8--8---|
-----------------------11----11------11-11-11-11-11-11-11----11---11-11-11-11-11-11-|
-0579-7-4-5-10-9-7------------109---------------------------------------------------|
----------0-------------------------------------------------------------------------|
----0------------8-----0----------0-----------------------0----0--------------------|

**
-12---10---0--------------12---10---0-------0--0--|
---8----8---8--8--8--8--8---8----8---0------0--0--|
----11---11--11-11-11-11-----11---11--11----0--0--|
----------------------------------------10--10-10-|
--------------------------------------------10-10-|
-0----0----0--------------0----0----0-----0----0--|


-12---10---0---------------0-0-----------2-----|
---8----8---8--------------0-0-------------3-5-|
----11---11--11------------0-0----2----2---2-4-| repeat from **
---------------109---0--02-2-2----24-----4---2-|
------------------109-10-3-3-3----2--2-2-------|
-0----0----0-------------3-3-3---------------0-|

-------------------------------------------0-------0-------0---|
-5-----5---5-5-----5---5-5-5-5---5-----5-----5---------5-5---5-|
-4-----4---4-4-----4---4-4-4-4---------------------------------|
---------------------------------------------------------------|
---------------------------------------------------------------|
-0---0---0---0---0---0---0---0---0---0---0---0---0---0---0---0-|


-----0-----0-------0---------0-------0-------------------------------|
-3-----2-----------------------------------------------------0-------|
-------------2---------2-2-----------------0-0---------0-------0-----|
---------------------------------4-----4-----------4-----4-------4-2-|
---------------------------------------------------------------------|
-0-----0-----0---0---0---0---0---0---0---0---0---0---0---0---0---0---|


--------------------------------------------------------------|
---------------0----------------------------------------------|
-------------------0------------------------------------------|
-2-------2-0---------0----------------------------------2---4-|
---------------------------3-----2---0---2323232--2-5---------|
-0-------0---0---0---0---0---0---0---0---0--------------------|


-----------------------------------------------------------------------------|
------------------------------------------------------5-7-8-7-5---7-5--------|
--------------------------------------------454-4-5-7-----------7-----7------|
--4h5-5p4-4p2-2---2h4-4p5---5---4-5-7-4-5-7----7------------------------7----|
----------------5------------------------------------------------------------|
-----------------------------------------------------------------------------|


----------------------------------------------------------------|
-8-7--------------8-7------------------------------------7---10-|
-----7----------------7------------------------------7---7---7--|
--------------------------79-----------------7p4-9p7------------|
---------9-------------------------5-7p5-9p7--------------------|
---------------------------------7------------------------------|


-7-----7-----7-----7-----7-------------------------------------------|
-5-----5-----5-----5-----5-----108-7-7-----7-----7-----7h8p7---7-----|
-4-----4-----4-----4-----4-----------------------------------7---9---|
---------------------------------------------------------------------|
---------------------------------------------------------------------|
-0---0---0---0---0---0---0---0-0---0---0---0---0---0---0---0---0---0-|


--0-----------0---------------------------------------------------------|
------------------------7h8p7---10--7h8p7-------------------------------|
--------9-----------9---------9-----------7-----7-------6h7p6-----------|
--------------------------------------------------------------7-----7---|
------------------------------------------------------------------9-----|
--0---0---0---0---0---0-0---0---0---0---0---0---0---0---0---0---0---0---|


-------0---------------0-----------0-------------|
-----------0---------------0-----------0---------|
-4---------------4-------------2---------2-------|
-------------------------------------------------|
-------------------------------------------------|
-0---0---0---0---0---0---0---0---0---0---0---0---|


---------------------------------------------------------------|
---------------------------------------------------------------|
-0h2-------0---------------------------------------------------|
-------4-----2-------------2-----2-----4-----5-----7-----------|
-----------------------------0---------------------------------|
-0---0---0---0---0---0---0---0---0---0---0---0---0---0---0---0-|


-----------------------------------------------------------0-----|
---------------------5-----5-----7h8p7---7---7h8p7-5-------------|
-4h5p4---4h5p4---7---------------------9---------------7-------7-|
-------7---------------------------------------------------------|
-----------------------------------------------------------------|
-0---0---0---0---0---0---0---0---0---0---0---0---0---0---0---0---|


---------------------0-----------|
-5-----7p5-----------------0-----|
-----------7----/9---------------|
---------------------------------|
---------------------------------|
-0---0---0---0---0---0---0---0---|


-7h107-----------------------------0-----------0---------------|
-------7-----7h107---------------------0-----------0------0----|
---------7---------7-----7------/9-------9-----------9---------|
---------------------9-----------------------------------------|
---------------------------------------------------------------|
-0---0---0---0---0---0---0---0---0---0---0---0---0---0---0---0-|


---------------9---7--------------------------------------------|
-7h8---8---10--10--8---8---7-----7-----------------7------------|
-7h9---9---11----------9---7---7-7-----------------------7------|
-------------------------------9-------9-----9-----------9---9--|
---------------------------------------10----10--------------10-|
-0---0---0---0---0---0---0---0---0---0---0---0---0---0---0---0--|


---------------------------------------------------0-----------|
-7-----------------7-----7-------------0-----------0-----7-----|
-7-------------------------7-----------0-------------------7---|
-9-----9-----9---------------9---9-----9-----9---------9-----9-|
-------10----10------------------------------------------------|
-0---0---0---0---0---0---0---0---0---0---0---0---0---0---0---0-|


---------------------------------------------------0-----|
-------------------0-----7h8p7---------0-----------0-----|
-------------------------------7-------------0-----------|
-9-----9-----9---------9---------9---------------------9-|
---------------------------------------------------------|
-0---0---0---0---0---0---0---0---0---0---0---0---0---0---|


---------------------------------7h107-------------|
-7h107---------0-----0-----0-----------7-------0---|
-------7-------------0-----0-----------------------|
---------9---------9---------------------9---------|
---------------------------------------------------|
-0---0---0---0---0---0---0---0---0---0---0---0---0-|


-------------------------------------------------0-|
-------0-----7h8p7---------0-----7h8p7-------------|
-------0-----------7-------------------9-7---9-----|
-9---------9---------9---------9-------------------|
---------------------------------------------------|
-0---0---0---0---0---0---0---0---0---0---0---0---0-|


-------0-----------0-----------0-----------0-------|
-----------------------0-----------0---------------|
-9-----------9-----------7-----------79--------9---|
---------------------------------------------------|
---------------------------------------------------|
-0---0---0---0---0---0---0---0---0---0---0---0---0-|

---------------------------------------------------------|
-------------------------------5-------------------------|
-------------------4-6---4-6-7---------------------------|
-------4-5---4-5-7-----7---------------------------------|
-----7-----7---------------------------------------------|
-0---0---0---0---0---0---0---0---0---0---0---0---0-------|

IMPROVISATIONAL BREAK leads eventually to...

--0---0---0---0---3---3---3---3---    --0---0---0---0---5---5---5---5---|
---3---3---3---3---0---0---0---0--    ---5---5---5---5---0---0---0---0--|
----5---5---5---5---5---5---5---5- x2 ----7---7---7---7---7---7---7---7-| x2
-----5---5---5-------5---5---5----    -----7---7---7-------7---7---7----|
-0---------------0----------------    -0---------------0----------------|
----------------------------------    ----------------------------------|


--0---0---0---0---8---8---8---8---    --0---0---0---0---10--10--10--10----|
---8---8---8---8---0---0---0---0--    ---10--10--10--10--0---0---0---0----|
----10--10--10--10--10--10--10--10 x2 ----12--12--12--12--12--12--12--12--| x2
-----10--10--10------10--10--10---    -----12--12--12------12--12--12-----|
-0---------------0----------------    -0---------------0------------------|
----------------------------------    ------------------------------------|


--10--10--10--10--10--10--10--10---|
---0---0---0---0---0---0---0---0---|
----12--12--12--12--12--12--12--12-|
-----12--12--12------12--12--12----|
-0---------------0-----------------|
-----------------------------------|

-12----7-10-7-------7--------:-----------9-\7--------------------|
-12----7-10-7---10--7---7----:-7-8-78/10-10\8-8-7----------------|
----------------9-------7---7:-7-9-79/11------9-7-7--------------|
----------------------------9:--------------------9--9---7--5--4-|
-----------------------------:-----------------------10--9--7--5-|
-0---------------------------:-0-------------------------------0-|

Back to the top

Coda:

-------0-----------0-----------0-----------0---------------------------------12--||
---------0-----------0-----------0-----------0--------------0----------------12--||
------------------------------------------------------0----------------------9---||
------------------------------------------------7-------7-------7------------9---||
-7-----------7-----------7-----------7----------5-------------------5--------9---||
-0---0-------0---0-------8---8-------8---8------7---7-------------------0--------||
Добавлено: 04.05.2016
Другие материалы по этой песне:
  • Аккорды и текст

Страница создана 04.05.2016
http://primanota.ru/bruce-cockburn/islands-in-a-black-sky-chords.htm
Привет, Гость.
Предлагаем пройти революционный курс по гитаре.
Подарок от PrimaNota.Ru, забирай!