PrimaNota.ru - самый крупный в мире бесплатный архив песенных текстов, аккордов, табулатур и нот


Brown Bird - End Of Days - таба, видео

Регистрация Запомнить меня
Войти через:  Facebook Google Twitter Vk Yandex Mail.ru

Brown Bird - End Of Days - таба, видео

Печатать
Просмотров: 102
-------------------------------------------------------------------------------
                             End Of Days - Brown Bird
-------------------------------------------------------------------------------
Tabbed by: astrayingline
E-mail: astrayingline@gmail.com

Tuning: Standard

The song uses four chords: Am, Am7, Em, E - for both chorus and the verses:

    Am  Am7  Em    E
e|--0----0----0----0--|
B|--1----1----0----0--|
G|--2----0----0----1--|
D|--2----2----2----2--|
A|--0----0----2----2--|
E|--X----X----0----X--|

Am
winter caps the rooftops
Am7
and shrouds the earth in silence
Em
skadi howls and mourns
E
and revels in the whiteness

Am
my world is so small
Am7
inside our cozy walls
Em                             E
so warm and so threatened by the end of days

Am
the time will surely come
Am7
when all is blown undone
Em                                  E
but I will still be with you my love

Am
this deafening quiet 
Am7
may grasp around my chest
Em                                  E
but I will pry it's bony fingers free


The picking pattern for all the chords is as follows:

  Am                             Am7
e|---------------------------------------------------------------------------|
B|-------1-------1-------1---------------1-------1-------1-------------------|
G|---2-------2-------2-------2---0---0-------0-------0-------0---0-----------|
D|-----2-------2-------2-------2-------2-------2-------2-------2-------------|
A|-0-------0-------0-------0-------0-------0-------0-------0-----------------|
E|---------------------------------------------------------------------------|
  
  Em                             E
e|---------------------------------------------------------------------------|
B|-------0-------0-------0---------------0-------0-------0-------------------|
G|---0-------0-------0-------0---0---1-------1-------1-------1---1-----------|
D|-----2-------2-------2-------2-------2-------2-------2-------2-------------|
A|-2-------2-------2-------2-------2-------2-------2-------2-----------------|
E|---------------------------------------------------------------------------|


There's another part that comes right after the chorus and it goes like this:

e|--5p3---3h5p3---3h5p3---3h5p3---3h5p3---3h5p3---3h5p3---3h5p3--------------|
B|------5-------5-------5-------5-------5-------5-------5-------5------------|
G|---------------------------------------------------------------------------|
D|---------------------------------------------------------------------------|
A|---------------------------------------------------------------------------|
E|---------------------------------------------------------------------------|

e|----0---0---0-------0---0---0--------0---0---0--------0---0---0------------|
B|--5---5---5---5s3--3---3---3--3s1--1---1---1---1p0--0---0---0--------------|
G|---------------------------------------------------------------------------|
D|---------------------------------------------------------------------------|
A|---------------------------------------------------------------------------|
E|---------------------------------------------------------------------------|

and you repeat this twice.

Please comment if you have any corrections.

Much, much love to all of you Brown Bird fans.

R.I.P David Lamb.

************************************

| /   slide up
| \   slide down
| h   hammer-on
| p   pull-off
| ~   vibrato
| +   harmonic
| x   Mute note
| b   Bend
| pb  Pre-bend
| br  Bend release
| pbr Pre-bend release
| brb Bend release bend

************************************
Добавлено: 21.08.2015
Вам также может быть интересно:
Другие материалы по этой песне:
  • Аккорды и текст

Страница создана 21.08.2015
http://primanota.ru/brown-bird/end-of-days-chords.htm
Привет, Гость.
Предлагаем пройти революционный курс по гитаре.
Подарок от PrimaNota.Ru, забирай!