PrimaNota.ru - самый крупный в мире бесплатный архив песенных текстов, аккордов, табулатур и нот


Brother Von Doom - Eater Of Days - таба, видео

Регистрация Запомнить меня
Войти через:  Facebook Google Twitter Vk Yandex Mail.ru

Brother Von Doom - Eater Of Days - таба, видео

Печатать
Просмотров: 122
BAND'S MYSPACE: http://www.myspace.com/brothervondoom (There is no official
website). They are signed to Deathcote.

Band: Brother Von Doom
Song: Eater of Days
Album: Relentless

The tuning is drop Csharp tuned to 5ths all the way down
So the tuning goes: Csharp Gsharp Csharp Fsharp B E

                                                     Pretty_Much: Enjoy!

----------------------------------|----------------------------------|
----------------------------------|----------------------------------|
----------------------------------|----------------------------------|
----------------------------------|----------------------------------|
---------8-------5-------10-------|---------8-------8-7---5-4---1----|
-0-4-0-5---7-5-0---7-8-0----8-7-5-|-0-4-0-5---7-5-0-8-7-0-5-4-0-1-0--| x4

----------------------------------|-------------------------------------------|
----------------------------------|-------------------------------------------|
----------------------------------|-------------------------------------------|
----------------------------------|-------------------------------------- <---|
-6-----6-----6---6-5---5---5------|-8-10---6---5---6--------------------------|
---4-4---4-4---4-----4---4---4-4--|------8---5---5---5-8-7-5-0-4--------------|
|
----------------------------------|-------------------------------------------| x2
----------------------------------|-------------------------------------------|
----------------------------------|-------------------------------------------|
----------------------------------|-------------------------------------- <---|
-6-----6-----6---6-5---5---5------|-8-10---10-12----8-10---6-8---5---3--------|
---4-4---4-4---4-----4---4---4-4--|------8-------10------8-----5---0---0------|

----------------------------------|----------------------------------|
----------------------------------|----------------------------------|
----------------------------------|----------------------------------|
----------------------------------|----------------------------------|
-1-------4-------5---4-------5----|-4---5---4-------1---4-------5----|
-1-1-1-1---1-1-1---1---1-1-1---1--|---1-5-1-4-1-1-1-1-1-4-1-1-1-5-1--| x2


----------------------------------|----------------------------------|
----------------------------------|----------------------------------|
----------------------------------|----------------------------------|
----------------------------------|----------------------------------|
-0-------4-------5---4-------5----|-4---5---4-------0---1-------4----|
-0-0-0-0---0-0-0---0---0-0-0---0--|---0-5-0-4-0-0-0-0-0-1-0-0-0-4-0--| x2


---------------------------------|--------------------------------------|
---------------------------------|--------------------------------------|
---------------------------------|--------------------------------------|
---------------------------------|--------------------------------------|
-6-----6-----6---6-5---5---5-----|-8-10---6---5---6---------------------|
---4-4---4-4---4-----4---4---4-4-|------8---5---5---5-8-7-5-0-4---------|

---------------------------------|--------------------------------------|
---------------------------------|--------------------------------------|
---------------------------------|--------------------------------------|
---------------------------------|--------------------------------------|
-6-----6-----6---6-5---5---5-----|-8-10---10-12----8-10---6-8---5---3---|
---4-4---4-4---4-----4---4---4-4-|------8-------10------8-----5---0---0-| x1


---------------------------------|----------------------------------|
---------------------------------|----------------------------------|
---------------------------------|----------------------------------|
-----5---4-----------------------|-----5---4------------------------|
-------------5---6---------------|-------------5---6----------------|
-5-5---5---5---5---5-5-5-5-5-5-5-|-5-5---5---5---5---0-8-0-7-0-4-0--|


---------------------------------|----------------------------------|
---------------------------------|----------------------------------|
---------------------------------|----------------------------------|
-----5---4-----------------------|-----5---4------------------------|
-------------5---6---------------|-------------5---6----------------|
-5-5---5---5---5---5-5-5-5-5-5-5-|-5-5---5---5---5---0-5-0-4-0-1-0--|


---------------------------------|----------------------------------|
---------------------------------|----------------------------------|
---------------------------------|----------------------------------|
-----5---4-----------------------|-----5---4------------------------|
-------------5---6---------------|-------------5---6----------------|
-0-0---0---0---0---0-0-0-0-0-0-0-|-0-0---0---0---0---0-5-0-4-0-1-0--|


---------------------------------|----------------------------------|
---------------------------------|----------------------------------|
---------------------------------|----------------------------------|
-----5---4-----------------------|-----5---4------------------------|
-------------5---6---------------|-------------5---6---3---5---6----|
-0-0---0---0---0---0-0-0-0-0-0-0-|-0-0---0---0---0---0---0---0---0--|

----------------------------------|----------------------------------|
----------------------------------|----------------------------------|
----------------------------------|----------------------------------|
----------------------------------|----------------------------------|
-8-----8-----8---7-----7-----7----|-5-----5-----5---0---1---4---1----|
---5-5---5-5---5---5-5---5-5---5--|---4-4---4-4---4---0---0---0---0--|

----------------------------------|----------------------------------|
----------------------------------|----------------------------------|
----------------------------------|----------------------------------|
----------------------------------|----------------------------------|
-8-----8-----8---7-----7-----7----|----------------------------------|
---5-5---5-5---5---5-5---5-5---5--|-4-1-0-3-6-3-0-4-7-4-0-3-6-3-1-4--|

----------------------------------|----------------------------------|
----------------------------------|----------------------------------|
----------------------------------|----------------------------------|
----------------------------------|----------------------------------|
-8-----8-----8---7-----7-----7----|-5-----5-----5---0---1---4---1----|
---5-5---5-5---5---5-5---5-5---5--|---4-4---4-4---4---0---0---0---0--|


----------------------------------|
----------------------------------|
----------------------------------|
----------------------------------|
-8-----8-----8---7-----7-----7----|
---5-5---5-5---5---5-5---5-5---5--|

----------------------------------|---------------------------------------|
----------------------------------|---------------------------------------|
----------------------------------|---------------------------------------|
----------------------------------|---------------------------------- <---|
-h/o------------------------------|-----0---1---5---4---------------------|
-1-0-0-0-3-0-4-0-0-0-3-0-4-0-1-0--|-3-0---0---0---0---0-4-0-3-0-1-0-------|
| x2
----------------------------------|---------------------------------------|
----------------------------------|---------------------------------------|
----------------------------------|---------------------------------------|
----------------------------------|---------------------------------- <---|
-h/o------------------------------|-----0---1---5---4---8---7---4---------|
-1-0-0-0-3-0-4-0-0-0-3-0-4-0-1-0--|-3-0---0---0---0---0---0---0---0-------|

----------------------------------|---------------------------------------|
----------------------------------|---------------------------------------|
----------------------------------|---------------------------------------|
----------------------------------|---------------------------------- <---|
-0-------5-------4----------------|-0-------5-------4-------4---5---------|
-0---0-0-7---0-0-6---0-0-0---0-0--|-0---0-0-7---0-0-6---0-0-6---7---------|
| x4
----------------------------------|---------------------------------------|
----------------------------------|---------------------------------------|
----------------------------------|-----------------h/o-------------------|
----------------------------------|----------------5-7-5------------- <---|
-0-------5-------4-------1--------|-0-------1------------8-7-5------------|
-0---0-0-7---0-0-6---0-0-3---0-0--|-2---0-0-3--0-0-------------8-7-5------|

----(lead chords behind last riff for the last 2 times it's played)--|
----------------------------------|----------------------------------|
-7---10--9---6---3---10--5---9----|----------------------------------|
----------------------------------|----------------------------------|
-5---8---7---4---1---8---3---7----|----------------------------------|
----------------------------------|----------------------------------|

----------------------------------|----------------------------------|
----------------------------------|----------------------------------|
----------------------------------|----------------------------------|
--------8-----7---------8-----7---|-------7-----8---------10----12---|
----------------------------------|----------------------------------|
-5-5-5----5-5---5-5-5-5---5-5---5-|-3-3-3---3-3---3-7-7-7----7-7---7-|

----------------------------------|----------------------------------|
----------------------------------|----------------------------------|
----------------------------------|----------------------------------|
--------8-----7---------8-----7---|-------7-----8---------10----12---|
----------------------------------|----------------------------------|
-5-5-5----5-5---5-5-5-5---5-5---5-|-3-3-3---3-3---3-7-7-7----7-7---7-|

-------------------------------------|-------------------------------------------|
-------------------------------------|-------------------------------------------|
-------------------------------------|-------------------------------------------|
-------12-----10---------12-----10---|-------10-----12------------14-------15----|
-------------------------------------|-------------------------------------------|
-8-8-8----8-8----8-8-8-8----8-8----8-|-7-7-7----7-7----7-10-10-10----10-10----10-|

-------------------------------------|-------------------------------------------|
-------------------------------------|-------------------------------------------|
-------------------------------------|-------------------------------------------|
-------12-----10---------12-----10---|-------10-----12------------14-------15----|
-------------------------------------|-------------------------------------------|
-8-8-8----8-8----8-8-8-8----8-8----8-|-7-7-7----7-7----7-10-10-10----10-10----10-|

-----------------------------------------------|----------------------------------------|
-----------------------------------------------|-16-14-16-17-16-17-19-17-16-------------|
----------10-12-14-12-10-----9-10-9-7---7-9-10-|----------------------------17----------|
-10-12-14----------------12~----------8--------|-------------------------------19-14-15-|
-----------------------------------------------|----------------------------------------|
-----------------------------------------------|----------------------------------------|

-------------------------------------------------|----------------------------------------------|
-------------10----10----------------10----10----|------------9----9----------------12----12----|
----------12----12----12----------12----12----12-|---------10---10---10----------14----14----14-|
-10-12-14----------------10-12-14----------------|-8-10-12--------------12-14-15----------------|
-------------------------------------------------|----------------------------------------------|
-------------------------------------------------|----------------------------------------------|

-------------------------------------------------|----------------------------------------------|
-------------10----10----------------10----10----|------------9----9----------------12----12----|
----------12----12----12----------12----12----12-|---------10---10---10----------14----14----14-|
-10-12-14----------------10-12-14----------------|-8-10-12--------------12-14-15----------------|
-------------------------------------------------|----------------------------------------------|
-------------------------------------------------|----------------------------------------------|

-----------------------------------------------------------|----------------------------------|
-----------------------------------------------------------|----------------------------------|
-12~15~14~-17-15-14----------------------------------14-15-|-10~12~10~-----------------9-10-12|
--------------------17-15-14----------------14-15-17-------|-------------------8-10-12--------|
-----------------------------17-15-13-15-17----------------|-----------8-10-12----------------|
-----------------------------------------------------------|----------------------------------|

-----------------------|
-9-10-12-10-9----------|
--------------12-9-10~-|
-----------------------|
-----------------------|
-----------------------|

-----------------------------------------17-------------|-----------------------|
----------------------17-17-17-16-16-14~----16----------|-----------------------|
-15~14-14-17-17-15-15--------------------------14-------|----14-12~-------12-10-|
--------------------------------------------------15----|-15-----------14-------|
-----------------------------------------------------17~|-----------15----------|
--------------------------------------------------------|-----------------------|

--------------------------|
--------------------------|
------10-9-------9-7-5-7~-|
---12---------10----------|
13---------12-------------|
--------------------------|
Добавлено: 09.03.2012
Другие материалы по этой песне:

Страница создана 09.03.2012
http://primanota.ru/brother-von-doom/eater-of-days-chords.htm
Привет, Гость.
Предлагаем пройти революционный курс по гитаре.
Подарок от PrimaNota.Ru, забирай!