PrimaNota.ru - самый крупный в мире бесплатный архив песенных текстов, аккордов, табулатур и нот


Brother Firetribe - Who Will You Run To Now - таба, видео

Регистрация Запомнить меня
Войти через:  Facebook Google Twitter Vk Yandex Mail.ru

Brother Firetribe - Who Will You Run To Now - таба, видео

Печатать
Просмотров: 134
Intro

let the first chord ring about 10 secs and then these
e--------------------------------------------------------|
b--------------------------------------------------------|
g----------------------------------------------------2---|
d--2------------------------------2---------2--------2---| and silence
a--2------------------------------2---------2--------0---|
D--2------------------------------2---------2------------|


e---------------------------|
b---------------------------|
g------------------------2--|
d--2----------2----------2--| x2..silence again
a--2----------2----------0--|
D--2----------2-------------|


Verse
     PM............  PM............. PM..............
 e-------------------------------------------------------------------|
 b-------------------------------------------------------------------|
 g------------------7---------------5--------------------------------|
:d--2---------------7---------------5----------------5-3-5-5---3-5---|
 a--2---------------5-5-5-5-5-5-5-5-3-3-3-3-3-3-3-3--3-3-3-3---3-3---|
 D--2-2-2-2-2-2-2-2--------------------------------------------------|

     PM............  PM............. PM..............
 e------------------------------------------------------------|
 b------------------------------------------------------------|
 g------------------7---------------5----------------2--------|
 d--2---------------7---------------5----------------2--------| : x2
 a--2---------------5-5-5-5-5-5-5-5-3-3-3-3-3-3-3-3--0--------|
 D--2-2-2-2-2-2-2-2-------------------------------------------|


Pre-chorus
						   PM..............
e--------------------------------------------------------------------|
b--------------------------------------------------------------------|
g--4--------------2-----------4-------------2------------------------|
d--4------5-------2-----------4------5------2--------2-2-2-2-2-2-2-2-|
a--2------5-------0-----------2------5------0--------0-0-0-0-0-0-0-0-|
D---------5--------------------------5-------------------------------|


Chorus

e---------------------------------------------------------|
b---------------------------------------------------------|
g--4----------------------------------------7-------------|
d--4------0------2------------5------7------7------7------|
a--2------0------2------------5------7------5------7------|
D---------0------2------------5------7-------------7------|

e---------------------------------------------------------|
b---------------------------------------------------------|
g--4---------------------------------2------4-------------|
d--4------0------2------------5------2------4-------------|
a--2------0------2------------5------0------2-------------|
D---------0------2------------5---------------------------|

Chorus part 2

e---------------------------------------------------------|
b---------------------------------------------------------|
g----------------5--------------------------2-------------|
d--2------0------5------------2------0------2-------------|
a--2------0------3------------2------0------0-------------|
D--2------0-------------------2------0--------------------|


Verse 2

 e--------------------------------------------------------|
 b--------------------------------------------------------|
 g--------------7--7--7--7--5--5--5--5--5--5--5--5--------|
:d--2--2--2--2--7--7--7--7--5--5--5--5--5--5--5--5--------|
 a--2--2--2--2--5--5--5--5--3--3--3--3--3--3--3--3--------|
 D--2--2--2--2--------------------------------------------|

 e----------------------------------------------|
 b----------------------------------------------|
 g--------------7--7--7--7--5--5--5--5--2-------|
 d--2--2--2--2--7--7--7--7--5--5--5--5--2-------|: x2
 a--2--2--2--2--5--5--5--5--3--3--3--3--0-------|
 D--2--2--2--2----------------------------------|


Pre-chorus 2
						   PM..............
e--------------------------------------------------------------------|
b--------------------------------------------------------------------|
g--4--------------2-----------4-------------2------------------------|
d--4------5-------2-----------4------5------2--------2-2-2-2-2-2-2-2-|
a--2------5-------0-----------2------5------0--------0-0-0-0-0-0-0-0-|
D---------5--------------------------5-------------------------------|

Second
Chorus

e---------------------------------------------------------|
b---------------------------------------------------------|
g--4----------------------------------------7-------------|
d--4------0------2------------5------7------7------7------|
a--2------0------2------------5------7------5------7------|
D---------0------2------------5------7-------------7------|

e---------------------------------------------------------|
b---------------------------------------------------------|
g--4---------------------------------2------4-------------|
d--4------0------2------------5------2------4-------------|
a--2------0------2------------5------0------2-------------|
D---------0------2------------5---------------------------|


Chorus part 2

little bit different now and slower
e-----------------------------------------------|
b-----------------------------------------------|
g----------------2-------------------2----------|
d--2------0------2------------5------2----------|
a--2------0------0------------5------0----------|
D--2------0-------------------5-----------------|


Solo

  PM....       pinch harmonic
e---------------------------------------------------|
b-------------------3b------------------------------|
g------2-4b---------------4~---2--4--------2--------|
d----2------------------------------2------2--------|
a--2---------------------------------------0--------|
D---------------------------------------------------|

e-------------------------------------|
b--/12~--15p12--12-12~----15-12h15p10-|
g-------------14----------------------|	and then some shit dunno what,just
d-------------------------------------|  do something fast:D
a-------------------------------------|
D-------------------------------------|


During the solo you can play these

e--------------------------------------------------|
b--------------------------------------------------|
g---------------------------2----------------------|
d--2------------------------2----------------------| x2
a--2------------------------0----------------------|
D--2-----------------------------------------------|

Third
Chorus

e---------------------------------------------------------|
b---------------------------------------------------------|
g--4----------------------------------------7-------------|
d--4------0------2------------5------7------7------7------|
a--2------0------2------------5------7------5------7------|
D---------0------2------------5------7-------------7------|

e---------------------------------------------------------|
b---------------------------------------------------------|
g--4---------------------------------2------4-------------|
d--4------0------2------------5------2------4-------------|
a--2------0------2------------5------0------2-------------|
D---------0------2------------5---------------------------|

Chorus part 2

e---------------------------------------------------------|
b---------------------------------------------------------|
g----------------5--------------------------2-------------|
d--2------0------5------------2------0------2-------------|
a--2------0------3------------2------0------0-------------|
D--2------0-------------------2------0--------------------|


And ending
      PM............
e-----------------------|
b-----------------------|
g--2--------------------|
d--2-----------------2--|
a--0-----------------2--|
D------5-4-2-4-5-4-2-2--|


Tabbed by Wasuri93
Check out also my videos at Youtube!
Добавлено: 12.06.2012
Вам также может быть интересно:
Другие материалы по этой песне:
  • Аккорды и текст

Страница создана 12.06.2012
http://primanota.ru/brother-firetribe/who-will-you-run-to-now-chords.htm
Привет, Гость.
Предлагаем пройти революционный курс по гитаре.
Подарок от PrimaNota.Ru, забирай!